Good Charlotte - Waldorf Worldwide Chords & Tabs

 

Waldorf Worldwide Chords & Tabs

Good Charlotte Chords & Tabs

Version: 1 Type: Bass Tab 0 ratings
1 star 2 stars 3 stars 4 stars 5 stars
comments

Waldorf Worldwide Bass Tab

   
Good Charlotte - Waldorf Worldwide
Tabbed By: Kyle Bates
EMail: Factor000413@aol.com
standard tuning:E,A,D,G

Riff 1
G}----------------|
D}----------------|
A}---1-1----1-1---|
E}----------------|

Riff 2
G}----------------------------------------|
D}------------3-3-3-3--1-1-1-1--3-3-3-3---|
A}---1-1-1-1------------------------------|
E}----------------------------------------|

Riff 3
G}-----------------------------------------------------------------|
D}---1-1-1-1-1-1-1-1--3-3-3-3-3-3-3-3------------------------------|
A}-------------------------------------1-1-1-1--0-0-0-0------------|
E}-------------------------------------------------------3-3-3-3---|
[ Tab from: http://www.guitartabs.cc/tabs/g/good_charlotte/waldorf_worldwide_btab.html ]
Cool song!Gets me hyped up!LEARN IT!IT'S EASY!!
===========          Good Charlotte
          Waldorf Worldwide
          Ryan H
          
          Riff 1 (Intro when drums and second guitar come in)
          e--------------
          a--1-1----1-1--
          d--------------
          g--------------
          
          Riff 2  
          e--------------------------------------
          a--1-1-1-1-----------------------------
          d-----------3-3-3-3--1-1-1-1--3-3-3-3--
          g--------------------------------------
          
          This riff is played throughout most of the song.  
          In the verse it is broken up and sliding is used.
          In the chorus it is played like the opening.
          After the opening above hold the a--1 or the A sharp
          
          Riff 3 (Bridge)
          e------------------------------------------------------
          a------------------------------------1-1-1-1--0-0-0-0--
          d--1-1-1-1-1-1-1-1--3-3-3-3-3-3-3-3--------------------
          g------------------------------------------------------
          
          Riff 3 (Continued)
          e--3-3-3-3--
          a-----------
          d-----------
          g-----------
Comments