Good Charlotte - The Young And The Hopeless Chords & Tabs

 

The Young And The Hopeless Chords & Tabs

Good Charlotte Chords & Tabs

Version: 7 Type: Tab 0 ratings
1 star 2 stars 3 stars 4 stars 5 stars
comments

The Young And The Hopeless Tab

   
Artist: Good Charlotte
Song:   The Young and the Restless
Album:  The Young and the Restless

Use Distortion
The intro may be way off, you might have to strum more or less times for
the heavy part, but it is easy to figure out and it is in the right
order. The high part should be good but the rhythm may be off.
* is a palm mute
H is HOLD, not hammer

Intro
E---------------------3-4-6-4-3----------------------------|
B-----------------4-4-----------4--------------------------|
G--------------------(2 different guitars)-----------------|
D----------------------------------------------------------|
A-22222222222222222222222222222222444444443333333333333333-|
E-00000000000000000000000000000000222222221111111111111111-|
  ********************************************************

Verse
E-----------------------------------------------------------------|
B-----------------------------------------------------------------|
G-5-5-5-5-5-5-5-5-------------------------------------------------|
D-5-5-5-5-5-5-5-5-6-6-6-6-6-6-6-6-8-8-8-8-8-8-8-8-8-8-8-8-8-8-8-8-|
A-3-3-3-3-3-3-3-3-6-6-6-6-6-6-6-6-8-8-8-8-8-8-8-8-8-8-8-8-8-8-8-8-|
E-----------------4-4-4-4-4-4-4-4-6-6-6-6-6-6-6-6-6-6-6-6-6-6-6-6-|

Chorus
E-----------------------------------------------------------------|
B-----------------------------------------------------------------|
G-----------------------------------------------------------------|
D-8H--------------8H--------------8H--------------8-8-8-8-8-8-8-8-|
A-8H--------------8H--------------8H--------------8-8-8-8-8-8-8-8-|
E-6H--------------6H--------------6H--------------6-6-6-6-6-6-6-6-|
[ Tab from: http://www.guitartabs.cc/tabs/g/good_charlotte/the_young_and_the_hopeless_tab_ver_7.html ]
Riff
E-----------------------------------------------------------------|
B-----------------------------------------------------------------|
G-----------------------------------------------------------------|
D-----------------------------------------------------------------|
A-4-4-4-4-4-4-4-4-3-3-3-3-3-3-3-3-2-2-2-2-2-2-2-2-2-2-2-2-2-2-2-2-|
E-2-2-2-2-2-2-2-2-1-1-1-1-1-1-1-1-0-0-0-0-0-0-0-0-0-0-0-0-0-0-0-0-|
  * * * * * * * * * * * * * * * * * * * * * * * * * * * * * * * *

Riff 2
E-----------------------------------------------------------------|
B-----------------------------------------------------------------|
G-----------------------------------------------------------------|
D-4-4-4-4-4-4-4-4-3-3-3-3-3-3-3-3-2-2-2-2-2-2-2-2-2-2-2-2-2-2-2-2-|
A-4-4-4-4-4-4-4-4-3-3-3-3-3-3-3-3-2-2-2-2-2-2-2-2-2-2-2-2-2-2-2-2-|
E-2-2-2-2-2-2-2-2-1-1-1-1-1-1-1-1-0-0-0-0-0-0-0-0-0-0-0-0-0-0-0-0-|

Chorus 2
E-------------------------------------------------------------------|
B-------------------------------------------------------------------|
G-------------------------------------------------------------------|
D-8-8-8-8-8-8-8-8-8-8-8-8-8-8-8-8-8-8-8-8-8-8-8-8-8-8-8-8-8-8-8-8-8-|
D-8-8-8-8-8-8-8-8-8-8-8-8-8-8-8-8-8-8-8-8-8-8-8-8-8-8-8-8-8-8-8-8-8-|
E-6-6-6-6-6-6-6-6-6-6-6-6-6-6-6-6-6-6-6-6-6-6-6-6-6-6-6-6-6-6-6-6-6-|

Outro
E------------------------------------|
B------------------------------------|
G------------------------------------|
D-4H--------------3H--------------2H-|
A-4H--------------3H-------------2H-|
E-2H--------------1H--------------0H-|

Intro       x2
Verse       x2
Chorus      x2
Intro       x2
Verse       x2
Chorus      x2
Riff        x3
Riff 2      x2
Chorus 2    x2
Riff 2      x2
Outro       x1
Comments