Good Charlotte - The Young And The Hopeless Chords & Tabs

 

The Young And The Hopeless Chords & Tabs

Good Charlotte Chords & Tabs

Version: 3 Type: Tab 0 ratings
1 star 2 stars 3 stars 4 stars 5 stars
comments

The Young And The Hopeless Tab

This is the real thing:
INTRO:(the # of times you do each chord might be off)
1----------------
2----------------
3------5---------
4-2----5x16-6---- Do all this twice
5-2x48-3----6x16- 
6-0---------6----
palm mute all this                                                             

Pre-chorus
1------------------------------------
2------------------------------------
3-55555555----------88888888---------
4-55555555-66666666-88888888-88888888 do all this twice too
5-33333333-66666666-66666666-88888888
6----------66666666----------88888888

Chorus
1------------------------------------
2------------------------------------
3---------5-5-555--------------------
4-2-2-222-5-5-555-6-6-666-88888888--- do all this twice
5-2-2-222-3-3-333-6-6-666-88888888x2-
6-0-0-000---------6-6-666-88888888---

Verse
1----------------
2----------------
3------5--------- do this twice
4-2----5x10-6----
5-2x10-3----6x15-
6-0---------6----
palm mute all this

after this do:
pre-chorus
chorus
Then play the bridge:
1---------------------------------
2---------------------------------
3-55555-44444---------55555-44444-This is all palm muted
4-55555-44444-22222---55555-44444-
5-33333-22222-22222---33333-22222-
6-------------00000---------------
[ Tab from: http://www.guitartabs.cc/tabs/g/good_charlotte/the_young_and_the_hopeless_tab_ver_3.html ]
Bridge(continued:
1---------------------------------
2---------------------------------
3----------55555-44444-3---------- Do the octave(part with the x's)set again
4-11111111-xxxxx-xxxxx-x
							
													
Comments