Good Charlotte - The Young And The Hopeless Chords & Tabs

 

The Young And The Hopeless Chords & Tabs

Good Charlotte Chords & Tabs

Version: 1 Type: Tab 0 ratings
1 star 2 stars 3 stars 4 stars 5 stars
comments

The Young And The Hopeless Tab

-------------------------------------------------------------------------------
The Young and The Hopeless - Good Charlotte
-------------------------------------------------------------------------------

Tabbed by: Shawn H*****

There wasn't a very good tab for this song so i gave it a shot.

Tuning: Standard

INTRO 
	Guitar 1				Guitar 2
e|-------------------------------|-------------------------------------------|
B|-------------------------------|----5--7--5--7--9--7--5--7-----------------|
G|-------------------------------|-------------------------------------------|
D|--2-------5-------3--repeat 2x-|-------------------------------------------|
A|--2-------5-------3------------|-------------------------------------------|
E|--0-------3-------1------------|-------------------------------------------|
    x	    x	     x

PRE-CHORUS
e|---------------------------------------------------------------------------|
B|---------------------------------------------------------------------------|
G|---8-8----------8-8--------------------------------------------------------|
D|---8-8---6-6----8-8----8-8-------------------------------------------------|
A|---6-6---6-6----6-6----8-8-------------------------------------------------|
E|---------4-4-----------6-6-------------------------------------------------|
[ Tab from: http://www.guitartabs.cc/tabs/g/good_charlotte/the_young_and_the_hopeless_tab.html ]
CHORUS
e|------------------------------|-----|--------------------------------------|
B|------------------------------|-----|--------------------------------------|
G|---8--------------------------|--8--|--------------------------------------|
D|---8------10------6------8----|--8--|--------------------------------------|
A|---6------10------6------8----|--6--|--------------------------------------|
E|-----------8------4------6----|-----|--------------------------------------|

BRIDGE
	Guitar1					Guitar 2
e|-------------------------------|------8----7----6--------------------------|
B|-------------------------------|-------------------------------------------|
G|---8-----5-----3---------------|-------------------------------------------|
D|---8-----5-----3---------------|-------------------------------------------|
A|---6-----3-----1---------------|-------------------------------------------|
E|-------------------------------|-------------------------------------------|
     x     x     x
END
e|---------------------------------------------------------------------------|
B|---------------------------------------------------------------------------|
G|---------------------------------------------------------------------------|
D|---10------9------8--------------------------------------------------------|
A|---10------9------8--------------------------------------------------------|
E|----8------7------6--------------------------------------------------------|

| x  Mute note

===============================================================================
Comments