Good Charlotte - The Click Chords & Tabs

 

The Click Chords & Tabs

Good Charlotte Chords & Tabs

Version: 3 Type: Tab 0 ratings
1 star 2 stars 3 stars 4 stars 5 stars
comments

The Click Tab

   
guitar 1
G|-5-----------------------------------------
D|-5-------5-------3-------------------------
A|-3-------5-------3-------------------------
E|---------3-------1-------------------------

guitar 2 (same time)
D|-0-2-4-2-0-2-4-2-0-2-4-2-4-5-4-2-0-2-4-2-0-
[ Tab from: http://www.guitartabs.cc/tabs/g/good_charlotte/the_click_tab_ver_3.html ]
Verse
guitar 1
e|------------------------------------------
B|------------------------------------------
G|-55555555---------------------------------
D|-55555555555555553333333333333333---------
A|-33333333555555553333333333333333---------
E|---------333333331111111111111111---------

Chorus
e|-------------------------------------------
B|-------------------------------------------
G|-77777777----------------------------------
D|-77777777777777779999999955555555----------
A|-55555555777777779999999955555555----------
E|---------555555557777777733333333----------

every other part in the song uses those riffs, just put palm muting wherever its needed

if u want any other good charlotte songs just email me Sid_rancid@hotmail.com
Comments