Good Charlotte - The Click Chords & Tabs

 

The Click Chords & Tabs

Good Charlotte Chords & Tabs

Version: 2 Type: Tab 0 ratings
1 star 2 stars 3 stars 4 stars 5 stars
comments

The Click Tab

   
Click by Good Charlotte
Tabbed by Jason Escudero (jasonx@mindspring.com) also visit 
my bands site @ http://legallyinsanemusic.com
Standard Tuning(Tabbed out for 2 guitars)

*note* this is for the music they play in the music video NOT the music the play
in the live mp3 as some people have so DONT COMPLAIN!! this is also my first tab,
so be gentle, here it is:

---------------------------------------------------------
                INTRO (2 guitars at the same time)
---------------------------------------------------------                      
               Guitar 1  D       D       D       D      D      D     G
e-#1------#2------#3------#4-----#5-----#6----#7----
B---------------------------------------------------
G-7*------7*------7*------7*-----7*-----7*-----4*----  *let notes ring  2x
D-7-------7-------7-------7------5------5------5----
A-5-------5-------5-------5------5------5------5----
E----------------------------------------------3----

(Each # Goes with the other guitars #..play @ same time!)

Guitar 2e------------------------------------
B---#1-----------#2----------#3--------------
G--------------------------------------------
D-----4------------4------------4---4-5-4----
A-5-7---7-----5-7----7------5-7---7-------7--
E--------------------------------------------
					
					2x

e----------------------------------------
B-#4----------#5---------#6------#7------
G----------------------------------------
D-----4-----------4----------4-----------
A-5-7---7-----5-7---7----5-7---7-5*------
E----------------------------------------

-------------------------------------------------------------
                  VERSE (guitar 1 OR 2) 
-------------------------------------------------------------
[ Tab from: http://www.guitartabs.cc/tabs/g/good_charlotte/the_click_tab_ver_2.html ]
     D         A            G               Bm 
e---------------------(1st&3rd time)-|-(2nd&4th time)---
B------------------------------------|------------------
G-7-777777--6-666666--4-444444444444-|------------------          1x
D-7-777777--7-777777--5-555555555555-|-9-999999999999---
A-5-555555--7-777777--5-555555555555-|-9-999999999999---
E-----------5-555555--3-333333333333-|-7-777777777777---
    ......    ......    ............ |   ............       ..'s = palmutes
-------------------------------------------------------------
                  CHORUS (both guitars)
-------------------------------------------------------------
     D         A         Bm        G                 D         A          Bm
e----------------------------------------- 1st | ------------------------------------- 2nd
B-----------------------------------------  &  | -------------------------------------  &
G-77777777--66666666------------44444444-- 3rd | -77777777--66666666------------------ 4th
D-77777777--77777777--99999999--55555555--time | -77777777--77777777--999999999999----
A-55555555--77777777--99999999--55555555--     | -55555555--77777777--999999999999----
E-----------55555555--77777777--33333333--     | -----------55555555--777777777777----
                                                                      .. .. .. ..
-------------------------------------------------------------
       OTHER PART (guitar 1 or 2) (she said she'd call...)
-------------------------------------------------------------

she said she'd call
  D    A    Bm      
e--------------------------------------
B--------------------------------------
G-7*---6*------------------------------    1x
D-7----7----9*-------------------------
A-5----7----9--------------------------
E------5----7--------------------------

but i know she won't  D    A    G

e--------------------------------------
B--------------------------------------
G-7*---6*---4*-------------------------    1x
D-7----7----5-------555444-------------
A-5----7----5-------------7775*--------
E------5----3--------------------------

D        A           G
e--------------------------------------
B--------------------------------------
G--7-7-7-7--6-6-6-6--4-4-4-4-4-4-4-4---    1x
D--7-7-7-7--7-7-7-7--5-5-5-5-5-5-5-5---
A--5-5-5-5--7-7-7-7--5-5-5-5-5-5-5-5---
E-----------5-5-5-5--3-3-3-3-3-3-3-3---

-------------------------------------------------------
                       OUTRO
-------------------------------------------------------

D   A   Bm

e--------------------------------------
B--------------------------------------
G-7--6---------------------------------    1x
D-7--7---9*----------------------------
A-5--7---9-----------------------------
E----5---7-----------------------------
Comments