Good Charlotte - The Chronicles Of Life And Death Chords & Tabs

 

The Chronicles Of Life And Death Chords & Tabs

Good Charlotte Chords & Tabs

Version: 2 Type: Tab 0 ratings
1 star 2 stars 3 stars 4 stars 5 stars
comments

The Chronicles Of Life And Death Tab

Song: Chronicles of life and death
Author: Good charlotte
Standard Tuning




Intro: (pm)

(0:03)

eb|--------------------|
Bb|--------------------|                   
Gb|-----5--4-----------|
Db|--4--5--4--6--------|
Ab|--4--3--2--6--------|
Eb|--2--------4--------|


Verse:

(0:16)

eb|--------------------|
Bb|--------------------|                   
Gb|-----5--4-----------|
Db|--4--5--4--6--------|
Ab|--4--3--2--6--------|
Eb|--2--------4--------|

End verse with: 

eb|-----|
Bb|-----|                   
Gb|-----|
Db|--2--|
Ab|--2--|
Eb|--0--|

Chorus: 

(0:31)

eb|--------------------|
Bb|--------------------|                   
Gb|--4--6--11--9-------|
Db|--4--6--11--9-------|
Ab|--2--4--9---7-------|
Eb|--------------------|


Solo:

Part 1 (2x)
[ Tab from: http://www.guitartabs.cc/tabs/g/good_charlotte/the_chronicles_of_life_and_death_tab_ver_2.html ]
eb|---------------------------------------------|
Bb|---------------------------------------------|                   
Gb|---------------------------------------------|
Db|-----8-6-----6-4-3---4-3-1-------------------|
Ab|---6-----9-4-------2---------2-4-------------|
Eb|---------------------------------------------|

Part 2

eb|------------------------------------------------------|
Bb|------------------------------------------------------                   
Gb|------------------------------------------9--13--16---|
Db|----4-3-4----6-4-3--------8-6-----6-4-3---9--13--16---|
Ab|--6-------6--------6-5--6-----9-4---------7--11--14---|
Eb|------------------------------------------------------|


Repeat: Intro
	Chorus
	Verse

End on:

eb|--------|
Bb|--------|                   
Gb|--------|
Db|---2----|
Ab|---2----|
Eb|---0----|
Comments