Good Charlotte - The Anthem Chords & Tabs

 

The Anthem Chords & Tabs

Good Charlotte Chords & Tabs

Version: 8 Type: Tab 0 ratings
1 star 2 stars 3 stars 4 stars 5 stars
comments

The Anthem Tab

   
THE ANTHEM
GOOD CHARLOTTE
THE YOUNG AND THE HOPELESS

INTRO

E|-----------------------------|
B|-----------------------------|
G|-----------------------------|
D|-77------------77------------|
A|-55-777-55-777-55-777-555555-|
E|----555-33-555----555-333333-|

E|-----------------------------------------------------------------------|
B|-----------------------------------------------------------------------|
G|---4-44-4-66-8-10----------1010-8-6----------4-44-6-8----------88-6-4--|
D|-4-4-44-4-66-8--8-8-6-66-6--8-8-8-6-6-4-44-4-4-44-6-8-8-6-66-6-88-6-4--|
A|-4-2-22-2-44-6--8-8-6-66-6--8-8-6-4-6-4-44-4-2-22-4-6-8-6-66-6-66-4-2--|
E|-2----------------6-4-44-4----------4-2-22-2----------6-4-44-4---------|

VERSE
(Palm-muted)
E|------------------------------------|
B|------------------------------------|
G|------------------------------------|
D|-777-55-333-55-777-55-333-55-777-55-|
A|-777-55-333-55-777-55-333-55-777-55-|
E|-555-33-111-33-555-33-111-33-555-33-|

(Not Palm-Muted)
E|-----------------------|
B|-----------------------|
G|---44-4666888101010666-|
D|-4-44-4666888101010666-|
A|-4-22-2444666-8-8-8444-|
E|-2---------------------|

(Palm-muted)
E|------------------------------------|
B|------------------------------------|
G|------------------------------------|
D|-777-55-333-55-777-55-333-55-777-55-|
A|-777-55-333-55-777-55-333-55-777-55-|
E|-555-33-111-33-555-33-111-33-555-33-|

(Not Palm-Muted)
E|-----------------------|
B|-----------------------|
G|---44-4666888101010666-|
D|-4-44-4666888101010666-|
A|-4-22-2444666-8-8-8444-|
E|-2---------------------|

PRECHORUS

Guitar 1
(Palm-muted)
E|----------------------------------------------|
B|----------------------------------------------|
G|----------------------------------------------|
D|-777-55-333-55-777-55-333-55-777-555555555555-|
A|-777-55-333-55-777-55-333-55-777-555555555555-|
E|-555-33-111-33-555-33-111-33-555-333333333333-|

Guitar 2
E|------------------------------------|
B|------------------------------------|
G|-7-4---4-7-4---4-7-4-55555555555555-|
D|-7-4-2-4-7-4-2-4-7-4-55555555555555-|
A|-5-2-2-2-5-2-2-2-5-2-33333333333333-|
E|-----0-------0----------------------|

CHORUS

E|---------------------------------|
B|---------------------------------|
G|-7-5---9-7-5---9-7-5---9-7-5---9-|
D|-7-5-5-9-7-5-5-9-7-5-5-9-7-5-5-9-|
A|-5-3-5-7-5-3-5-7-5-3-5-7-5-3-5-7-|
E|-----3-------3-------3-------3---|

PREVERSE

E|-----------------------------------------------------------------------|
B|-----------------------------------------------------------------------|
G|---4-44-4-66-8-10----------1010-8-6----------4-44-6-8----------88-6-4--|
D|-4-4-44-4-66-8--8-8-6-66-6--8-8-8-6-6-4-44-4-4-44-6-8-8-6-66-6-88-6-4--|
A|-4-2-22-2-44-6--8-8-6-66-6--8-8-6-4-6-4-44-4-2-22-4-6-8-6-66-6-66-4-2--|
E|-2----------------6-4-44-4----------4-2-22-2----------6-4-44-4---------|
[ Tab from: http://www.guitartabs.cc/tabs/g/good_charlotte/the_anthem_tab_ver_8.html ]
VERSE
(Palm-muted)
E|------------------------------------|
B|------------------------------------|
G|------------------------------------|
D|-777-55-333-55-777-55-333-55-777-55-|
A|-777-55-333-55-777-55-333-55-777-55-|
E|-555-33-111-33-555-33-111-33-555-33-|

(Not Palm-Muted)
E|-----------------------|
B|-----------------------|
G|---44-4666888101010666-|
D|-4-44-4666888101010666-|
A|-4-22-2444666-8-8-8444-|
E|-2---------------------|

(Palm-muted)
E|------------------------------------|
B|------------------------------------|
G|------------------------------------|
D|-777-55-333-55-777-55-333-55-777-55-|
A|-777-55-333-55-777-55-333-55-777-55-|
E|-555-33-111-33-555-33-111-33-555-33-|

(Not Palm-Muted)
E|-----------------------|
B|-----------------------|
G|---44-4666888101010666-|
D|-4-44-4666888101010666-|
A|-4-22-2444666-8-8-8444-|
E|-2---------------------|

PRECHORUS

Guitar 1
(Palm-muted)
E|----------------------------------------------|
B|----------------------------------------------|
G|----------------------------------------------|
D|-777-55-333-55-777-55-333-55-777-555555555555-|
A|-777-55-333-55-777-55-333-55-777-555555555555-|
E|-555-33-111-33-555-33-111-33-555-333333333333-|

Guitar 2
E|------------------------------------|
B|------------------------------------|
G|-7-4---4-7-4---4-7-4-55555555555555-|
D|-7-4-2-4-7-4-2-4-7-4-55555555555555-|
A|-5-2-2-2-5-2-2-2-5-2-33333333333333-|
E|-----0-------0----------------------|

CHORUS

E|---------------------------------|
B|---------------------------------|
G|-7-5---9-7-5---9-7-5---9-7-5---9-|
D|-7-5-5-9-7-5-5-9-7-5-5-9-7-5-5-9-|
A|-5-3-5-7-5-3-5-7-5-3-5-7-5-3-5-7-|
E|-----3-------3-------3-------3---|

BRIDGE
(Palm-muted)
E|-------------------------------------------------------------------------|
B|-------------------------------------------------------------------------|
G|-------------------------------------------------------------------------|
D|-77777777-55555555-33333333-55555555-77777777-55555555-33333333-55555555-|
A|-77777777-55555555-33333333-55555555-77777777-55555555-33333333-55555555-|
E|-55555555-33333333-11111111-33333333-55555555-33333333-11111111-33333333-|

(I am sorry but i could not find out the tabs for the solo)

BRIDGE Part2
E|-----------------------------|
B|-----------------------------|
G|-----------------------------|
D|-77------------77------------|
A|-55-777-55-777-55-777-555555-|
E|----555-33-555----555-333333-|

CHORUS

E|---------------------------------|
B|---------------------------------|
G|-7-5---9-7-5---9-7-5---9-7-5---9-|
D|-7-5-5-9-7-5-5-9-7-5-5-9-7-5-5-9-|
A|-5-3-5-7-5-3-5-7-5-3-5-7-5-3-5-7-|
E|-----3-------3-------3-------3---|


E|---------------------------------|
B|---------------------------------|
G|-7-5---9-7-5---9-7-5---9-7-5---9-|
D|-7-5-5-9-7-5-5-9-7-5-5-9-7-5-5-9-|
A|-5-3-5-7-5-3-5-7-5-3-5-7-5-3-5-7-|
E|-----3-------3-------3-------3---|

OUTRO

E|-------|
B|-------|
G|-5-7-9-|
D|-5-7-9-|
A|-3-5-7-|
E|-------|
Comments