Good Charlotte - The Anthem Chords & Tabs

 

The Anthem Chords & Tabs

Good Charlotte Chords & Tabs

Version: 7 Type: Tab 0 ratings
1 star 2 stars 3 stars 4 stars 5 stars
comments

The Anthem Tab

Hey i'm 13 and this is my first tab so i'm 100% sure it's right so all you guys
just rock on!!! and enjoy this tab. P.S. I haven't worked out how man times each
is played but I'll should have it by the end of the week.                       

                        Good Charlotte (The Anthem)

Intro:
 e---------------------|
 B---------------------|
 G---------------------|X2
 D-7-7-----------------|
 A-5-5--7-7--5-5--7-7--|
 E-------5-5--3-3--5-5-|
[ Tab from: http://www.guitartabs.cc/tabs/g/good_charlotte/the_anthem_tab_ver_7.html ]
 Verse (the part after he says "here we go"):
 e-------------------------------------------------------------------------|
 B-------------------------------------------------------------------------|
 G-7--7-7--7-7-7--9-11-----------------------------------------------------|
 D-7--7-7--7-7-7--9-11--7-7--7-7--7--17-17--16--14--5-5--5-5--5--9-9-10-11-|
 A-5--5-5--5-5-5--7-9---7-7--7-7--7--17-17--16--14--5-5--5-5--5--9-9-10-11-|
 E----------------------5-5--5-5--5--15-15--14--12--3-3--3-3--3--7-7-8--9--|

Verse (Cont.)
e----------------------------|
B----------------------------|
G----------------------------|
D-7-7--7-7--7--17-17--16--14-|
A-7-7--7-7--7--17-17--16--14-|
E-5-5--5-5--5--15-15--14--12-|

 Pre Chorus:
 e------------------------------------------------------------------|
 B------------------------------------------------------------------|
 G------------------------7-7-7-7-7-7-7-7---------------------------|
 D-9-9-9-9--5-5-5-5--7-7-7-7-7-7-7-7--9-9-9-9--5-5-5-5--7-7-7-7-----|
 A-9-9-9-9--5-5-5-5--5-5-5-5-5-5-5-5--9-9-9-9--5-5-5-5--7-7-7-7-----|
 E-7-7-7-7--3-3-3-3-----------------------7-7-7-7--3-3-3-3--5-5-5-5-|

 Chorus:
 e------------------------------|
 B------------------------------|
 G-7-7-7------------------------|
 D-7-7-7--7-7-7--5-5-5--7-7-7---|
 A-5-5-5--7-7-7--5-5-5--7-7-7---|
 E----------5-5-5--3-3-3--5-5-5-|
Comments