Good Charlotte - The Anthem Chords & Tabs

 

The Anthem Chords & Tabs

Good Charlotte Chords & Tabs

Version: 11 Type: Tab 0 ratings
1 star 2 stars 3 stars 4 stars 5 stars
comments

The Anthem Tab

Here is yet another tab, posted by me, if you want
anymore good charlotte tabs just write it in my post thanks.




----------------------------------------------|
----------------------------------------------|
-77------------------77-----------------------|
-77--77-7--55-5-7-7--77--77-7--5--------------|
-55--77-7--55-5-7-7--55--77-7--5-xxx-xxx------|
-55--55-5--33-3-5-5--55--55-5--3-xxx-xxx------|

--------------------------------------------------
--------------------------------------------------
-7----7-----77--9--10---------------1212--11-9----
-7----7-----xx--x--x-----7----7-----x-x---x--x----
-5-xx-5-xx--55--7--9-----7-xx-7-xx--1010--9--7----
-5-xx-5-xx------------x--5-xx-5-xx-------------x--

----------------------------------------------|
----------------------------------------------|
------------66--7--9---------------99-77-66---|
-5----5-----xx--x--x----7----7-----xx-xx-xx---|
-5-xx-5-xx--44--5--7----7-xx-7-xx--77-55-44---|
-3-xx-3-xx-----------x--5-xx-5-xx-----------0-|

...................................................                        
------|                                    ------|
------|                                    ------|
-7----|                                    -3----|
----7-|                                    ----3-|
------|                                    ------|
------|                                    ------|       
[ Tab from: http://www.guitartabs.cc/tabs/g/good_charlotte/the_anthem_tab_ver_11.html ]
..................................................
---------------------------------------------------------------------|
---------------------------------------------------------------------|
---------------------------------------------------------------------|
-4-5-4-----7-77-777---4-5-4-----5-55-555---4-5-4-----7-xx-7-777777---|
5-5---5----7-77-777--5-5---5----5-55-555--5-5---5----7-xx-7-777777---|
-----------5-55-555-------------3-33-333-------------5-xx-5-555555---|


..................................................
---------------------------------------------------------------
---------------------------------------------------------------
---------------------------------------------------------------
-/11-11-11-9--11-9-999-999--/11-11-11-9--11-12-121212-121210-9--
--x--x--x--x--x--x-xxx-xxx---x--x--x--x--x--x--x-x-x--x-x-x--x--
-/9--9--9--7--9--7-777-777--/9--9--9--7--9--10-101010-10109--7--

-----------------------------------------------------------|
-----------------------------------------------------------|
-----------------------------------------------------------|
-/11-11-11-9--11-9-999-99---77-7--99-9-101010101110/11-10--|
--x--x--x--x--x--x-xxx-xx---xx-x--xx-x-x-x-x-x-x--x-x--x---|
-/9--9--9--7--9--7-777-770--55-5--77-7-9-9-9-9/10-9/10-9---|


----------------------------------------------|
----------------------------------------------|
-77------------------77-----------------------|
-77--77-7--55-5-7-7--77--77-7--5--------------|
-55--77-7--55-5-7-7--55--77-7--5-xxx-xxx------|
-55--55-5--33-3-5-5--55--55-5--3-xxx-xxx------|

----------------------------------------------|
----------------------------------------------|
-7-----------------7--------------------------|
-7----7----5----7--7----7----5----7777--------|
-5-xx-7-xx-5-xx-7--5-xx-7-xx-5-xx-7777--------|
-5-xx-5-xx-3-xx-5--5-xx-5-xx-3-xx-5555--------|


--------------------------|
--------------------------|
-7-----------------7------|
-7----7------5--7--7------|
-5-xx-7-xx---5--7--5------|
-5-xx-5-xx---3--5--5------|
Comments