Good Charlotte - The Anthem Chords & Tabs

 

The Anthem Chords & Tabs

Good Charlotte Chords & Tabs

Version: 1 Type: Tab 0 ratings
1 star 2 stars 3 stars 4 stars 5 stars
comments

The Anthem Tab

e-------------------------------------
b-------------------------------------
g-------------------------------------
d-7-77-777-9-11-----------------------
a-5-55-555-7-9------------------------
e-------------------------------------
[ Tab from: http://www.guitartabs.cc/tabs/g/good_charlotte/the_anthem_tab.html ]
e-------------------------------------
b-------------------------------------
g-------------------------------------
d--------12-12-11-9-------------------
a-7-77-7-10-10-9--7-------------------
e-5-55-5------------------------------

e-------------------------------------
b-------------------------------------
g-------------------------------------
d--------77-9-11----------------------
a-5-55-5-55-7-9-----------------------
e-3-33-3------------------------------

e-------------------------------------
b-------------------------------------
g-------------------------------------
d--------12-12-11-11-9----------------
a-7-77-7-10-10-9--9--7----------------
e-5-55-5------------------------------
Comments