Good Charlotte - Thank You Mom Chords & Tabs

 

Thank You Mom Chords & Tabs

Good Charlotte Chords & Tabs

Version: 1 Type: Tab 0 ratings
1 star 2 stars 3 stars 4 stars 5 stars
comments

Thank You Mom Tab

THANK YOU MUM  Good Charlotte


Intro
e|-3----3---------2----------------------------------------------------------|
B|-3----3----3----3----------------------------------------------------------|
G|-0----0----4----2----------------------------------------------------------|
D|-0----2----4---------------------------------------------------------------|
A|-2----3----2---------------------------------------------------------------|
E|-3-------------------------------------------------------------------------|
[ Tab from: http://www.guitartabs.cc/tabs/g/good_charlotte/thank_you_mom_tab.html ]
Verse
e|-----------3----2----------------------------------------------------------|
B|-1----1----3----3----------------------------------------------------------|
G|-2----0----0----2----------------------------------------------------------|
D|-2----2----0---------------------------------------------------------------|
A|------3----2---------------------------------------------------------------|
E|-----------3---------------------------------------------------------------|

Chorus
e|-----------3----2----------------------------------------------------------|
B|-1----1----3----3----------------------------------------------------------|
G|-2----0----0----2----------------------------------------------------------|
D|-2----2----0---------------------------------------------------------------|
A|------3----2---------------------------------------------------------------|
E|-----------3---------------------------------------------------------------|

you can figure ouy timing, rythem and order
yourselves as im to lazy to type it all in.

I spelt it MUM instead of MOM because you Americans
are quere and spell everythimg different.
 
Any comments, corrections or questions about the 
tab e-mail me at n_kaandorp@hotmail.com
Comments