Good Charlotte - Superman Cant Walk Chords & Tabs

 

Superman Cant Walk Chords & Tabs

Good Charlotte Chords & Tabs

Version: 1 Type: Tab 0 ratings
1 star 2 stars 3 stars 4 stars 5 stars
comments

Superman Cant Walk Tab

Superman Cant Walk - GOod Charlotte
By:Andrew Mcshan (Guitarguyx182@aol.com)
Intro/Verse
e|--------------------------------7b-----------------------------------------|
B|---------------------------------------------------------------------------|
G|-------5b-----5b--------5b-------------------------------------------------|
D|---------------------------------------------------------------------------|
A|--0--0-----0------0--0------0----------------------------------------------|
E|---------------------------------------------------------------------------|

Chorus
e|---------------------------------------------------------------------------|
B|---------------------------------------------------------------------------|
G|-7-7--9--9-----------------------------------------------------------------|
D|-7-7--9--9---7-7--7-7------------------------------------------------------|
A|-5-5--7--7---7-7--7-7------------------------------------------------------|
E|-------------5-5--5-5------------------------------------------------------|
[ Tab from: http://www.guitartabs.cc/tabs/g/good_charlotte/superman_cant_walk_tab.html ]
Bridge
e|---------------------------------------------------------------------------|
B|---------------------------------------------------------------------------|
G|--------7-7----------------------------------------------------------------|
D|--4-4---7-7--7-7-7-7-------------------------------------------------------|
A|--4-4---5-5--7-7-7-7-------------------------------------------------------|
E|--2-2--------5-5-5-5-------------------------------------------------------|
You call yourself a lois lane and you're in pain and I'm insane 
You don't want my help you don't need my help 
I watched you fall down from the sky but I won't cry 
I'll just sigh who is gonna save you 
Yeah I've heard the talk superman can't walk 
And who is gonna save you when your superman can't walk 
I saw him just the other day in physical therapy 
Sitting in a wheel chair you know I had to stare 
And all your friends they think I'm sick they think that I'm insensitive 
They don't like the fun I'm poking don't they know I'm only joking yeah 
I've heard the talk superman can't walk 
And who is gonna save you when your superman can't walk 
Call me what you will 
I'm doctor evil 
Call me what you want 
Superman can't walk 
And all your friends they think I'm sick they think that I'm insensitive 
They don't like the fun I'm poking don't they know I'm only joking 
Yeah I've heard the talk superman can't walk 
And who is gonna save you when your superman can't walk walk
Comments