Good Charlotte - Sos Chords & Tabs

 

Sos Chords & Tabs

Good Charlotte Chords & Tabs

Version: 3 Type: Tab 0 ratings
1 star 2 stars 3 stars 4 stars 5 stars
comments

Sos Tab

----------------------------------------------------------------------------
			     SONG NAME - Band Name
----------------------------------------------------------------------------
Tabbed by: my guitar teacher
won't sound exact if you play along to the record b/c of their tuning.
i tried to put time to help you but its prolly off a lil.


Tuning: Standard


INTRO: 0:00 - 0:20
A minor - F Major - C Major

VERSE: 0:26 - 0:46                  0:46 - 0:54  
e|--------------------------------|---------------------------------------|
B|--------------------------------|---------------------------------------|
G|--------------------------------|---------------------------------------|
D|-----------------5---5----------|-------------5--5----------------------|
A|---3---5---7-----3---2----------|---3--7--7---3--2----------------------|
E|---1---3---5--------------------|---1--4--5-----------------------------|
   listen for strumming. the 3-5 and 2-5 are shorter strums


Chorus 0:55 - 1:16
e|-------------------------------------------------------------------------|
B|-------------------------------------------------------------------------|
G|-------------------------------------------------------------------------|
D|-------------5-----------------------------------------------------------|
A|---7----3----3-----------------------------------------------------------|
E|---5----1----------------------------------------------------------------|
strum c longer

Verse 2: is the same  1:19 - 1:40 // 1:40 - 1:52
Chorus 2: is the same 1:52 - 2:13

[ Tab from: http://www.guitartabs.cc/tabs/g/good_charlotte/sos_tab_ver_3.html ]
Bridge: 2:19 -  2:48
e|-------------------------------------------------------------------------|
B|-------------------------------------------------------------------------|
G|-------------------------------------------------------------------------|
D|-------------------------------------------------------------------------|
A|---3---7---7---5---------------------------------------------------------|
E|---1---4---5---3---------------------------------------------------------|


Solo: 2:49 - 3:02
e|-------------------------------------------------------------------------|
B|------5-5-5-------5---------8-6-5----------5-5-5-----5--------8-6-5--6-5-|
G|--5-5--------5-5----7~--5-5--------7--5----------5-5---7~-5-5------------|
D|----------------------------------------7--------------------------------|
A|-------------------------------------------------------------------------|
E|-------------------------------------------------------------------------|
cont. 3:03 - 3:12?
e|------------------------------------------8888-7-5-33--8888-77-10101010--|
B|-8p6p5--8p6p5---------------------8--------------------------------------|
G|----------------7p5p4-7p5p4--4\5------5---9999-7-5-44--9999-77-10101010--|
D|-------------------------------------------------------------------------|
A|-------------------------------------------------------------------------|
E|-------------------------------------------------------------------------|
 3:15
e|--8--7--5--3-------------------------------------------------------------|
B|--------------------8~---------------------------------------------------|
G|--9--7--5--4---4\5-------------------------------------------------------|
D|-------------------------------------------------------------------------|
A|-------------------------------------------------------------------------|
E|-------------------------------------------------------------------------|

Outro same as Intro
3:17 - 3:36


i think its the best so far. rate? questions or whatever pukesthedayaway@yahoo.com
Comments