Good Charlotte - Sos Chords & Tabs

 

Sos Chords & Tabs

Good Charlotte Chords & Tabs

Version: 1 Type: Tab 0 ratings
1 star 2 stars 3 stars 4 stars 5 stars
comments

Sos Tab

   
Song Title: S.O.S
Artist:     Good Charlotte
Tabbed By:  F.Miņana(Kiko)
Key:
.  = Palm Mute
-> = Continued
x  = Don't play string (Mute)
~  = Let ring for a short time
~~ = Let ring for a long time
*t)= Tremolo Picking 

This is one of my favourite songs on this album and it is mad to play. The solo took a
 while to figure out and I'm 100% sure it is perfect. Enjoy! Gt.1 & 2 play the same 
thing all the way through except the verse and solo which only Gt.1 (Billy) plays.


Intro (Acoustic (0:00)
e-00-000--00-000--00-000-00-000-|
B-00-000--00-000--00-000-00-000-|
G-xx-xxx--11-111--44-444-44-444-|
D-66-666--22-222--44-444-44-444-|
A-66-666--22-222--22-222-22-222-|
E-44-444--00-000--xx-xxx-xx-xxx-| x4

Verse (0:24)
e---------------------------------------------------------------------|
B---------------------------------------------------------------------|
G---------------------------------------------------------------------|
D-2-22-22-2-22-22--4-44-44-4-44-44--6-66-66-6-66-66--9-99-99--9-99-99-|
A-2-22-22-2-22-22--4-44-44-4-44-44--6-66-66-6-66-66--9-99-99--9-99-99-|
E-0-00-00-0-00-00--2-22-22-2-22-22--4-44-44-4-44-44--7-77-77--6-66-66-| x2
  . .. .. . .. ..  . .. .. . .. ..  . .. .. . .. ..  . .. ..  . .. ..

Pre-Chorus (0:45)
e---------------------------------------------|
B---------------------------------------------|
G---------------------------------------------|
D-2-22-22-2-22-22--6~~--6~~--9-99-99--9-99-99-|
A-2-22-22-2-22-22--6~~--6~~--9-99-99--9-99-99-|
E-0-00-00-0-00-00--3~~--4~~--7-77-77--6-66-66-| x1
  . .. .. . .. ..

Chorus (0:57)
e---------------------|
B---------------------|
G-----------4444-4444-|
D-6666-2222-4444-4444-|
A-6666-2222-2222-2222-|
E-4444-0000-----------| x4

Verse x2 (1:18)
Pre-chorus (1:40)
Chorus x4 (1:51)
[ Tab from: http://www.guitartabs.cc/tabs/g/good_charlotte/sos_tab.html ]
Let ring (2:13)
e-----|
B-----|
G-----|
D-2~~-|
A-2~~-|
E-0~~-|

Interlude (2:17)
e-----------------------------------------------------------------------------------------|
B-----------------------------------------------------------------------------------------|
G-----------------------------------------------------------------------------------------|
D-666-666-666-666-444-444-222-222-666-666-666-666-444-444-222-222-666-666-222-222-999-999-|
A-666-666-666-666-444-444-222-222-666-666-666-666-444-444-222-222-666-666-222-222-999-999-|
E-333-333-444-444-222-222-000-000-333-333-444-444-222-222-000-000-333-333-444-444-777-777-|

Solo (2:47)
(Chorus played by Gt.2)
e------------------------------------------------------------->
B---------------------7-5--------------------------7-5-4-5-4~->
G---88-8-----8-6---44-----8-6-----88-8-----8-6--44------------>
D-99-----9-9-----------------9-6-------9-9-------------------->
A------------------------------------------------------------->
E------------------------------------------------------------->

Solo Cont... (2:58)
e-----------------------------2-----77-7-6-4-----77-7-6-6--{9999}--{7777}--7-6-4-----------|
B-7p5p0-7p5p0-4p2p0-4p2p0-------444----------7-7---------------------------------7-4h5-7~~-|
G-------------------------3h4--------------------------------------------------------------|
D------------------------------------------------------------------------------------------|
A------------------------------------------------------------------------------------------|
E------------------------------------------------------------------------------------------|

Acoustic Ending x4 (Same as Intro) (3:09)

       Well that's about it. Check out my tabs for The Chronicles of Life and Death, 
Walk Away and Predictable as well. And if u need any GC songs.
tabbed out give us a yell.

If you have any Corrections, Comments or tab requests email me at chiwiwielchaval@hotmail.com
Comments