Good Charlotte - Seasons Chords & Tabs

 

Seasons Chords & Tabs

Good Charlotte Chords & Tabs

Version: 1 Type: Bass Tab 0 ratings
1 star 2 stars 3 stars 4 stars 5 stars
comments

Seasons Bass Tab

------------------------------------
Seasons- Good Charlotte
------------------------------------

	This is my first ever tab and since I had such a hard time finding this 
song, I want to share it with everyone! Please don’t kill if it’s wrong…

First off… The whole beginning (the “clean” part), only guitar and vocals. Bass 
comes in with the “distortion”. (around 00:58)

Verse 2 (x2)
G |-------------------------------------------------------------------| 
D |-------------------------------------------------------------------|
A |-3-3333333------------------------35-------------------------------|
E |------------3-3333333—-1-1111111--------3-33-3---------------------|


Pre chorus (x1)
G | --------------------------------------------------------------------|
D | --------------------------------------------------------------------|
A | ---3~----------3~----------3~---------------------------------------|
E | ---------3~----------3~----------3~----1-1-1-1-1-1-1-1--------------|
[ Tab from: http://www.guitartabs.cc/tabs/g/good_charlotte/seasons_btab.html ]
Chorus (x2)
G | --------------------------------------------------------------------|
D | --------------------------------------------------------------------|
A | -33333333-----------------------35----------------------------------|
E | -----------33333333—111**11133--------3-33-3------------------------|

Post Chorus (x1)
G | --------------------------------------------------------------------|
D | --------------------------------------------------------------------|
A | ----3~----------3~--------------------------------------------------|
E | ----------3~----------3~--1-----------------------------------------|

Verse 3 (x1)
G | --------------------------------------------------------------------|
D | --------------------------------------------------------------------|
A | -3-3333333-----------------------35-33------------------------------|
E | ------------3-3333333—1-1111111---------3-33-3----------------------|

Finish (x1)
G | --------------------------------------------------------------------|
D | --------------------------------------------------------------------|
A | -33333333------------------------35---------------------------------|
E | -----------33333333—-111**11133--------3-33-3-----------------------|

G | --------------------------------------------------------------------|
D | --------------------------------------------------------------------|
A | -3333333------------------------35----------------------------------|
E | ----------33333333—-111**11133--------3-33-3------------------------|

Thats it! Have fun and keep rockin!
Comments