Good Charlotte - Screamer Chords & Tabs

 

Screamer Chords & Tabs

Good Charlotte Chords & Tabs

Version: 1 Type: Tab 0 ratings
1 star 2 stars 3 stars 4 stars 5 stars
comments

Screamer Tab

Screamer"


Opening/Main riff
---0-0-----------------------------------
---0-0-----------------------------------
---1-1-----------------------------------
---2-2-x-x-x-9-9-x-x-7-7-7-x-x-x-9-9-9---
---2-2-x-x-x-9-9-x-x-7-7-7-x-x-x-9-9-9---
---0-0-x-x-x-7-7-x-x-5-5-5-x-x-x-7-7-7---
there's also a part at the beginning with 
a second guitar basically picking the notes
of the chords throughout. deal with it.


Vrse (the little added things at the end of the lines)
First (...wind can't speak...)
-----------------------
-----------------------
--11-13-14-13-11-13b---
-----------------------
-----------------------
-----------------------

Second (...forever I can't speak...)
-----------------------
-----------------------
--13h14-13-11-14-------
-----------------------
-----------------------
-----------------------
[ Tab from: http://www.guitartabs.cc/tabs/g/good_charlotte/screamer_tab.html ]
Third (...life that you spent...)
-----------------------
-----------------------
--14-13-11-14-13-11----
-----------------------
-----------------------
-----------------------

Fourth (after "...became a screamer...")
-----------------------
-----------------------
--11-13-14-13-11-13b---
-----------------------
-----------------------
-----------------------


Interlude
----------------------------------------
----------------------------------------
----------------------------------------
---2---2------------9--9--9--7-7--9-9---
---2---2------------9--9--9--7-7--9-9---
---0---0------------7--7--7--5-5--7-7---
Take out the light....


Interlude riffs
|---------------|---------------------|---------------|-------------
|---------------|---------------------|---------------|-------------
|---------------|---------------------|---------------|--11b--11b---
|--------9------|--9h11p9-------------|--------9------|-------------
|---9h11---11---|----------11p9-------|---9h11---11---|-------------
|---------------|----------------12---|---------------|-------------


 
Comments