Good Charlotte - Say Anything Chords & Tabs

 

Say Anything Chords & Tabs

Good Charlotte Chords & Tabs

Version: 2 Type: Chords 0 ratings
1 star 2 stars 3 stars 4 stars 5 stars
comments

Say Anything Chords

   
Hi, this is my 2nd tab. Try this !

(Bass)(intro) (2x)
E--------------------------
B--------------------------
G--------------------------
D--------------------------
A--3--3--3--5--3-----------
E-----------------5--3--1--

(Guitar)(intro & "here I am on the phone again.....")
E--0--------0-------0--------0--------0--
B--1--------1-------1--------1-----------
G--0--------0-------0--------0-----------
D--2-----2--3----3--2-----2--3-----3-----
A--3--3-----3--3----3--3-----3--3--------
E--0--------0-------0--------0-----------

C                   F          C             F
I used to know the sound of a smile in your voice
           C         F           C                   G
But right now all I feel is the pain of the fighting starting up again
Am                            G                       F
All the things we talk about you know they stay on my mind, on my mind
Am                                G                          F
All the thing we laugh about will bring through it all every time
F
After time, after time

C                 G
Don't say a word, I know you feel the same
F
Just give me a sign, say anything, say anything
C                       G
Please don't walk away, I know you wanna stay
F
If you just give me a sign, say anything, say anything

(guitar)
E--------------------------------------------
B--1--1--0--0--------------------------------
G--------------2--2--0--0--------------0-----
D--------------------------3--2-----0--------
A--------------------------------3--------3--
E--------------------------------------------
[ Tab from: http://www.guitartabs.cc/tabs/g/good_charlotte/say_anything_crd_ver_2.html ]
(Guitar)(intro & "some say that time chages...")
E--0--------0-------0--------0--------0--
B--1--------1-------1--------1-----------
G--0--------0-------0--------0-----------
D--2-----2--3----3--2-----2--3-----3-----
A--3--3-----3--3----3--3-----3--3--------
E--0--------0-------0--------0-----------

C                     F
So here wee are again same old argument
C                     F
Now I'm wontdering if they will ever change
C                         F
When will you laugh again,laugh like you did back when
C                                G
We'd make noise 'till 3:00AM and the neighbors would complain
Am                            G                       F
All the things we talk about you know they stay on my mind, on my mind
Am                                G                          F
All the thing we laugh about will bring through it all every time
F
After time, after time


C                 G
Don't say a word, I know you feel the same
F
Just give me a sign, say anything, say anything
C                       G
Please don't walk away, I know you wanna stay
F
If you just give me a sign, say anything, say anything

Am           G            F
I'm falling, I'm falling, I'm falling down  (2x)
F     F     F
Down, down, down


C                 G
Don't say a word, I know you feel the same
F
Just give me a sign, say anything, say anything
C                       G
Please don't walk away, I know you wanna stay
F
If you just give me a sign, say anything, say anything

(guitar)(outro)
E-----------------------------------------0--
B--1--1--0--0-----------------------------1--
G--------------2--2--0--0--------------0--0--
D--------------------------3--2-----0-----2--
A--------------------------------3--------3--
E-----------------------------------------0--
Comments