Good Charlotte - Predictable Chords & Tabs

 

Predictable Chords & Tabs

Good Charlotte Chords & Tabs

Version: 9 Type: Tab 0 ratings
1 star 2 stars 3 stars 4 stars 5 stars
comments

Predictable Tab

   
--------------------------------------------------------------------------------------------
                                    Good Charlotte - Predictable
--------------------------------------------------------------------------------------------
This Tab i Seen From Good Charlotte , Lastnight with Conan O ' Brien
i Think it Sure
Let's Play !!

Artist : Good Charlotte
Song : Predictable

Tuning : Normal 
Tab by : O p a r n i e `z 

Guitar 1 : BiLLy Martin
Guitar 2 : Benji Madden

Intro ( Guitar 2 : Benji Madden ) 
e|------------------------------------------------------------|
B|------------------------------------------------------------|
G|------------------------------------------------------------|
D|-9-9--9-9--10-10--10-10--10-10->-5-5--5-5--5-5--5-5--5-5----|
A|-7-7--7-7--7--7---7--7---7--7-->-2-2--2-2--3-3--3-3--3-3----|
E|------------------------------------------------------------|
Play 2 Times

Intro ( Guitar 1 : BiLLy Martin )
e|------12--11~~----------------------------------------------|
B|---12-------------------------------12--14--12~~------------|
G|------------------------------------------------------------|
D|------------------------------------------------------------|
A|------------------------------------------------------------|
E|------------------------------------------------------------|

Verse 1 ( Guitar 1 : BiLLy Martin ) Let Rings Same Intro
Verse 1 ( Guitar 2 : Benji Madden ) 
e|------------------------------------------------------------|
B|------------------------------------------------------------|
G|------------------------------------------------------------|
D|-9-9--9-9--10-10--10-10--10-10->-5-5--5-5--5-5--5-5--5-5----|
A|-7-7--7-7--7--7---7--7---7--7-->-2-2--2-2--3-3--3-3--3-3----|
E|------------------------------------------------------------|
This Part Play 3 Times

Verse 1 ( Guitar 2 : Benji Madden ) 
e|------------------------------------------------------------|
B|------------------------------------------------------------|
G|------------------------------------------------------------|
D|-9-9--9-9--10-10--10-10--10-10->-5-5--5-5--5-5--5-5~~-------|
A|-7-7--7-7--7--7---7--7---7--7-->-2-2--2-2--3-3--3-3~~-------|
E|------------------------------------------------------------|
This Part is Last Of Verse 1

Chorus ( Guitar 1 : BiLLy Martin )
e|------------------------------------------------------------|
B|------------------------------------------------------------|
G|------------------------------------------------------------|
D|-----0-2---0-2---0-2---0-2-----0-2---0-2---0-2---0-2--------|
A|-3-3-----3-----3-----3--------------------------------------|
E|---------------------------1-1-----1-----1-----1------------|

e|------------------------------------------------------------|
B|------------------------------------------------------------|
G|------------------------------------------------------------|
D|-----0-2---0-2---0-2---0-2-----0-2---0-2---0-2---0-2--------|
A|------------------------------------------------------------|
E|-2-2-----2-----2-----2-----1-1-----1-----1-----1------------|


Chorus ( Guitar 2 : Benji Madden ) 

	  C		      F
e|------------------------------------------------------------|
B|------------------------------------------------------------|
G|-5--5--55--55--555------------------------------------------|
D|-5--5--55--55--555--3--3--33--33--333-----------------------|
A|-3--3--33--33--333--3--3--33--33--333-----------------------|
E|--------------------1--1--11--11--111-----------------------|

	  F#		      F
e|------------------------------------------------------------|
B|------------------------------------------------------------|
G|------------------------------------------------------------|
D|-4--4--44--44--444--3--3--33--33--333-----------------------|
A|-4--4--44--44--444--3--3--33--33--333-----------------------|
E|-2--2--22--22--222--1--1--11--11--111-----------------------|

End Chorus ( Plays Only End First Chorus )
( Guitar 1 : BiLLy Martin )
( Guitar 2 : Benji Madden )
e|------------------------------------------------------------|
B|------------------------------------------------------------|
G|------------------------------------------------------------|
D|-22----xxxx----22----xxxxxx----22----xxxx----22-------------|
A|-22----xxxx----22----xxxxxx----22----xxxx----22-------------|
E|-00----xxxx----00----xxxxxx----00----xxxx----00-------------|



Verse 2 ( Guitar 1 : BiLLy Martin )
e|------12--11~~----------------------------------------------|
B|---12-------------------------------12--14--12~~------------|
G|------------------------------------------------------------|
D|------------------------------------------------------------|
A|------------------------------------------------------------|
E|------------------------------------------------------------|


Verse 2 ( Guitar 2 : Benji Madden ) 
e|------------------------------------------------------------|
B|------------------------------------------------------------|
G|-999->-777->-1010101010101010->--555->-777->-55555555-------|
D|------------------------------------------------------------|
A|-777->-555->-7-7-7-7-7-7-7-7-->--333->-555->-33333333-------|
E|------------------------------------------------------------|
This Part Plays 3 Times


Verse 1 ( Guitar 2 : Benji Madden ) 
e|------------------------------------------------------------|
B|------------------------------------------------------------|
G|-999->-777->-1010101010101010-------------------------------|
D|--------------------------------5-5--5-5--5-5-5-5~~---------|
A|-777->-555->-7-7-7-7-7-7-7-7----2-2--2-2--3-3-3-3~~---------|
E|------------------------------------------------------------|
This Part is Last Of Verse 2

[ Tab from: http://www.guitartabs.cc/tabs/g/good_charlotte/predictable_tab_ver_9.html ]
Chorus ( Guitar 1 : BiLLy Martin )
e|------------------------------------------------------------|
B|------------------------------------------------------------|
G|------------------------------------------------------------|
D|-----0-2---0-2---0-2---0-2-----0-2---0-2---0-2---0-2--------|
A|-3-3-----3-----3-----3--------------------------------------|
E|---------------------------1-1-----1-----1-----1------------|

e|------------------------------------------------------------|
B|------------------------------------------------------------|
G|------------------------------------------------------------|
D|-----0-2---0-2---0-2---0-2-----0-2---0-2---0-2---0-2--------|
A|------------------------------------------------------------|
E|-2-2-----2-----2-----2-----1-1-----1-----1-----1------------|


Chorus ( Guitar 2 : Benji Madden ) 
	  C		      F
e|------------------------------------------------------------|
B|------------------------------------------------------------|
G|-5--5--55--55--555------------------------------------------|
D|-5--5--55--55--555--3--3--33--33--333-----------------------|
A|-3--3--33--33--333--3--3--33--33--333-----------------------|
E|--------------------1--1--11--11--111-----------------------|

	  F#		      F
e|------------------------------------------------------------|
B|------------------------------------------------------------|
G|------------------------------------------------------------|
D|-4--4--44--44--444--3--3--33--33--333-----------------------|
A|-4--4--44--44--444--3--3--33--33--333-----------------------|
E|-2--2--22--22--222--1--1--11--11--111-----------------------|


End Chorus 2
( Guitar 1 : BiLLy Martin )
( Guitar 2 : Benji Madden )
e|------------------------------------------------------------|
B|------------------------------------------------------------|
G|------------------------------------------------------------|
D|->-7-777-77--3-333-33--4-444-44--3-333-33-------------------|
A|->-7-777-77--3-333-33--4-444-44--3-333-33-------------------|
E|->-5-555-55--1-111-11--2-222-22--1-111-11-------------------|

Solo ( Guitar 1 : BiLLy Martin )

- Solo Normal Version BiLLy Play With Him Effect and Joel Play Keyboard
- But This Solo i Bring From Acoustic Version

e|-12-12-12-12------------------------------------------------|
B|-------------13-13-13-13-13-13-13-13-13-13-13-13------------|
G|------------------------------------------------------------|
D|------------------------------------------------------------|
A|------------------------------------------------------------|
E|------------------------------------------------------------|

e|------------------------------------------------------------|
B|-12-12-12-12-12-12-12-13-13-13-13-13-13-13-13-13-12-12-13---|
G|------------------------------------------------------------|
D|------------------------------------------------------------|
A|------------------------------------------------------------|
E|------------------------------------------------------------|

e|-12-12-12-12------------------------------------------------|
B|-------------13-13-13-13-13-12-12-12-13-12-8~~--------------|
G|------------------------------------------------------------|
D|------------------------------------------------------------|
A|------------------------------------------------------------|
E|------------------------------------------------------------|


Chorus ( Guitar 1 : BiLLy Martin )
e|------------------------------------------------------------|
B|------------------------------------------------------------|
G|------------------------------------------------------------|
D|-----0-2---0-2---0-2---0-2-----0-2---0-2---0-2---0-2--------|
A|-3-3-----3-----3-----3--------------------------------------|
E|---------------------------1-1-----1-----1-----1------------|

e|------------------------------------------------------------|
B|------------------------------------------------------------|
G|------------------------------------------------------------|
D|-----0-2---0-2---0-2---0-2-----0-2---0-2---0-2---0-2--------|
A|------------------------------------------------------------|
E|-2-2-----2-----2-----2-----1-1-----1-----1-----1------------|


Chorus ( Guitar 2 : Benji Madden ) 

	  C		      F
e|------------------------------------------------------------|
B|------------------------------------------------------------|
G|-5--5--55--55--555------------------------------------------|
D|-5--5--55--55--555--3--3--33--33--333-----------------------|
A|-3--3--33--33--333--3--3--33--33--333-----------------------|
E|--------------------1--1--11--11--111-----------------------|

	  F#		      F
e|------------------------------------------------------------|
B|------------------------------------------------------------|
G|------------------------------------------------------------|
D|-4--4--44--44--444--3--3--33--33--333-----------------------|
A|-4--4--44--44--444--3--3--33--33--333-----------------------|
E|-2--2--22--22--222--1--1--11--11--111-----------------------|


Outro ( Guitar 1 : BiLLy Martin )
e|------------------------------------------------------------|
B|------------------------------------------------------------|
G|-------0---------------0--------------0---------------------|
D|--2-3---3--2~---2-3---3-2------2-3----3---------------------|
A|-3--------3-----3-----------3--33--------3---------------3~-|
E|---------------------------------------------------------1~-|


Outro ( Guitar 2 : Benji Madden ) 
e|------------------------------------------------------------|
B|------------------------------------------------------------|
G|-55-------------55----------------55------------------------|
D|-55-------------55----------------55------------------------|
A|-33-------------33----------------33-----------------3~-----|
E|-----------------------------------------------------1~-----|
Comments