Good Charlotte - Predictable Chords & Tabs

 

Predictable Chords & Tabs

Good Charlotte Chords & Tabs

Version: 7 Type: Tab 0 ratings
1 star 2 stars 3 stars 4 stars 5 stars
comments

Predictable Tab

Intro

E --------------------------------------------------------------------------|
B --------------------------------------------------------------------------|
G --11-11--11-11--12-12--12-12--12--12--------------------------------------|
D --------------------------------------13-13--13-13--14-14--14-14--14--14--|
A --------------------------------------------------------------------------|
E --------------------------------------------------------------------------|

Verse 1: With riff 1 (00:05)

E --------------------------------------------------------------------------|
B --------------------------------------------------------------------------|
G --11-11--11-11--12-12--12-12--12--12--------------------------------------|
D --------------------------------------13-13--13-13--14-14--14-14--14--14--|
A --------------------------------------------------------------------------|
E --------------------------------------------------------------------------|

Riff 1

E -098----098----098----89----098----89----------|
B -----------------------------------------------|
G -----------------------------------------------|
D -----------------------------------------------|
A -----------------------------------------------|
E -----------------------------------------------|

Pre-Chorus: "Still I don't know why..."  (00:25)

E ---------------------------------|
B ---------------------------------|
G ---------------------------------|
D --3-3----3-3----3-3----4-4-------|
A --3-3----3-3----3-3----4-4-------|
E --1-1----1-1----1-1----2-2-------|

Chorus (00:28)

E ---------------------------------|
B ---------------------------------|
G --5------------------------------|
D --5----5----7----3---------------|
A --3----5----7----3---------------|
E -------3----5----1---------------|

After Chorus (00:51)     (h)=harmonic

E ----------------------------------|
B ----------------------------------|
G ----------------------------------|
D --3-3----3-3----3-3----4-4---4----|(h)
A --3-3----3-3----3-3----4-4--------|
E --1-1----1-1----1-1----2-2--------|

Verse 2: With Riff 2 (00:57)
[ Tab from: http://www.guitartabs.cc/tabs/g/good_charlotte/predictable_tab_ver_7.html ]
E --------------------------------------------------------------------------|
B --------------------------------------------------------------------------|
G --11-11--11-11--12-12--12-12--12--12--------------------------------------|
D --------------------------------------13-13--13-13--14-14--14-14--14--14--|
A --------------------------------------------------------------------------|
E --------------------------------------------------------------------------|

Riff 2

E --098----098----089----098----089----|
B -------------------------------------|
G -------------------------------------|
D -------------------------------------|
A -------------------------------------|
E -------------------------------------|

Pre-Chorus: "giving back what you gave me"  (1:17)

E -------------------------------------|
B -------------------------------------|
G -------------------------------------|
D --3--3----4--4-----------------------|
A --3--3----4--4-----------------------|
E --1--1----2--2-----------------------|

Chorus (1:20)

E -------------------------------------|
B -------------------------------------|
G --5----------------------------------|
D --5----5----7----3-------------------|
A --3----5----7----3-------------------|
E -------3----5----1-------------------|

Bridge (01:43)

E --------------------------------------------------------------|
B --------------------------------------------------------------|
G -----8--------------4--------------4--------------4-----------|
D --7--8--9--7-----3--4--5--3-----3--4--5--3-----3--4--5--3-----|
A --7--6--9--7-----3--2--5--3-----3--2--5--3-----3--2--5--3-----|
E --5-----7--5-----1-----3--1-----1-----3--1-----1-----3--1-----|

E -------------------------------------|
B -------------------------------------|
G -------------------------------------|
D --5-5----5-5----5-5----4-3-----------|
A --5-5----5-5----5-5----4-3-----------|
E --3-3----3-3----3-3----2-1-----------|

Chorus (02:17)

E -------------------------------------|
B -------------------------------------|
G --5----------------------------------|
D --5----5----7----3-------------------|
A --3----5----7----3-------------------|
E -------3----5----1-------------------|

E ----------------------------------------------------------|
B ----------------------------------------------------------|
G ----------------------------------------------------------|
D --3-3----3-3----3-3----3-3----3-3----3-3----3-3----3-3----|
A --3-3----3-3----3-3----3-3----3-3----3-3----3-3----3-3----|
E --1-1----1-1----1-1----1-1----1-1----1-1----1-1----1-1----|

Outro (02:51)

E ----------------------------------------------------------|
B ----------------------------------------------------------|
G ----------3--------------3----------------3---------------|
D --------1---1----------1---1------------1---1------4--5---|
A ------2-------2------2-------2--------2-------2----4--5---|
E --3-3-----------3--3-------------3-3---------------2--3---|
Comments