Good Charlotte - Predictable Chords & Tabs

 

Predictable Chords & Tabs

Good Charlotte Chords & Tabs

Version: 4 Type: Tab 0 ratings
1 star 2 stars 3 stars 4 stars 5 stars
comments

Predictable Tab

   
Song: Predictable
Band: Good Charlotte


Okay, I know this isn't even close, but this is what I could pick out of their
appearance on TRL, it doesn't sound too bad when you play with the song. But,
I couldn't figure out the finger picking outro.

Gtr I (Eb Ab Db Gb Bb Eb)
Gtr II (Eb Ab Db Gb Bb Eb)

    Q=180
   4/4
    Gtr I
||--------------------|-----------------|----------||
||o------18---17------|-(17)------------|---------o||
||--17----------------|-----------------|----------||
||--------------------|-----------------|----------||
||o-------------------|-----------------|---------o||
||--------------------|-----------------|----------||
|
||--------------------|-----------------|----------||
||o-------------------|-----------------|---------o||
||--------------------|-----------------|----------||
||---3-3----3--3--3-3-|------7-7--7-7---|----------||
||o--3-3----3--3--3-3-|------7-7--7-7---|---------o||
||---1-1----1--1--1-1-|------5-5--5-5---|----------||


|-||--------------------|---------------|------||
|-||o------18---17------|----15--13-----|-----o||
|-||--17----------------|---------------|------||
|-||--------------------|---------------|------||
|-||o-------------------|---------------|-----o||
|-||--------------------|---------------|------||
|
|-||--------------------|---------------|------||
|-||o-------------------|---------------|-----o||
|-||--------------------|---------------|------||
|-||---3-3----3--3--3-3-|--7--7---7-7---|------||
|-||o--3-3----3--3--3-3-|--7--7---7-7---|-----o||
|-||---1-1----1--1--1-1-|--5--5---5-5---|------||


  Gtr II
|------------------|
|------------------|
|------------------|
|-3-3--3-3--7-7----|
|-3-3--3-3--7-7----|
|-1-1--1-1--5-5----|


   4/4
    Gtr I
||-------------------||-||-------------------||-|
||o-----------------o||-||o-----------------o||-|
||--------5----------||-||--------5----------||-|
||--5---5-----5------||-||--3---3-----3------||-|
||o---3---------3---o||-||o---3---------3---o||-|
||-------------------||-||-------------------||-|
|
|   Gtr II
||-------------------||-||-------------------||-|
||o-----------------o||-||o-----------------o||-|
||--5-5-5-5-5-5-5-5--||-||-------------------||-|
||--5-5-5-5-5-5-5-5--||-||--3-3-3-3-3-3-3-3--||-|
||o-3-3-3-3-3-3-3-3-o||-||o-3-3-3-3-3-3-3-3-o||-|
||-------------------||-||--1-1-1-1-1-1-1-1--||-|

[ Tab from: http://www.guitartabs.cc/tabs/g/good_charlotte/predictable_tab_ver_4.html ]
||-------------------||-||--------------------||
||o-----------------o||-||o------------------o||
||--------7----------||-||--------5-----------||
||--7---7-----7------||-||--3---3-----3-------||
||o---5---------5---o||-||o---3---------3----o||
||-------------------||-||--------------------||
|
||-------------------||-||--------------------||
||o-----------------o||-||o------------------o||
||-------------------||-||--------------------||
||--7-7-7-7-7-7-7-7--||-||--3-3-3-3-3-3-3-3---||
||o-7-7-7-7-7-7-7-7-o||-||o-3-3-3-3-3-3-3-3--o||
||--5-5-5-5-5-5-5-5--||-||--1-1-1-1-1-1-1-1---||


   4/4
    Gtr I
||-------------------||-||-------------------||-|
||o-----------------o||-||o-----------------o||-|
||--------5----------||-||--------5----------||-|
||--5---5-----5------||-||--3---3-----3------||-|
||o---3---------3---o||-||o---3---------3---o||-|
||-------------------||-||-------------------||-|
|
|   Gtr II
||-------------------||-||-------------------||-|
||o-----------------o||-||o-----------------o||-|
||--5-5-5-5-5-5-5-5--||-||-------------------||-|
||--5-5-5-5-5-5-5-5--||-||--3-3-3-3-3-3-3-3--||-|
||o-3-3-3-3-3-3-3-3-o||-||o-3-3-3-3-3-3-3-3-o||-|
||-------------------||-||--1-1-1-1-1-1-1-1--||-|


||-------------------||-||--------------------||
||o-----------------o||-||o------------------o||
||--------7----------||-||--------5-----------||
||--7---7-----7------||-||--3---3-----3-------||
||o---5---------5---o||-||o---3---------3----o||
||-------------------||-||--------------------||
|
||-------------------||-||--------------------||
||o-----------------o||-||o------------------o||
||-------------------||-||--------------------||
||--7-7-7-7-7-7-7-7--||-||--3-3-3-3-3-3-3-3---||
||o-7-7-7-7-7-7-7-7-o||-||o-3-3-3-3-3-3-3-3--o||
||--5-5-5-5-5-5-5-5--||-||--1-1-1-1-1-1-1-1---||


  Gtrs I, II
|-----------------|-----------------|-----------------|-----------------|
|-----------------|-----------------|-----------------|-----------------|
|-5-5-5-5-5-5-5-5-|-----------------|-----------------|-----------------|
|-5-5-5-5-5-5-5-5-|-5-5-5-5-5-5-5-5-|-7-7-7-7-7-7-7-7-|-3-3-3-3-3-3-3-3-|
|-3-3-3-3-3-3-3-3-|-5-5-5-5-5-5-5-5-|-7-7-7-7-7-7-7-7-|-3-3-3-3-3-3-3-3-|
|-----------------|-3-3-3-3-3-3-3-3-|-5-5-5-5-5-5-5-5-|-1-1-1-1-1-1-1-1-|


|-----------------|-----------------|-----------------|-----------------|
|-----------------|-----------------|-----------------|-----------------|
|-----------------|-5-5-5-5-5-5-5-5-|-----------------|-----------------|
|-7-7-7-7-7-7-7-7-|-5-5-5-5-5-5-5-5-|-2-2-2-2-2-2-2-2-|-3-3-3-3-3-3-3-3-|
|-7-7-7-7-7-7-7-7-|-3-3-3-3-3-3-3-3-|-2-2-2-2-2-2-2-2-|-3-3-3-3-3-3-3-3-|
|-5-5-5-5-5-5-5-5-|-----------------|-0-0-0-0-0-0-0-0-|-1-1-1-1-1-1-1-1-|


|-----|-----|-----|-----|----|
|-----|-----|-----|-----|----|
|-----|-----|-----|-----|----|
|-7-7-|-7-7-|-7-7-|-7-3-|----|
|-7-7-|-7-7-|-7-7-|-7-3-|----|
|-5-5-|-5-5-|-5-5-|-5-1-|----|
Comments