Good Charlotte - My Bloody Valentine Chords & Tabs

 

My Bloody Valentine Chords & Tabs

Good Charlotte Chords & Tabs

Version: 3 Type: Tab 0 ratings
1 star 2 stars 3 stars 4 stars 5 stars
comments

My Bloody Valentine Tab

Song: My Bloody Valentine
Artist: Good Charlotte
Album: The Young and the Hopeless
Track: 7
Tabbed By: Terry


This is all my own work, Im 100% sure this is correct. 

Intro (played soft with no distortion)
E------------------------------------5-----
B------------------------------------6-----
G------9----11---7---------9----11---7-----
D-7----9----11---7----7----9----11---7-----
A-7----7----9----5----7----7----9----5-----
E-5-------------------5--------------------
oh my love please dont cry. . .

Pre-verse
E-----------------------------------
B-----------------------------------
G--7-7-7-7-9-9-9-9-1111111113131313-
D--7-7-7-7-9-9-9-9-1111111113131313-
A--5-5-5-5-7-7-7-7-9-9-9-9-11111111-
E-----------------------------------

Verse
      PALM MUTED
E-------------------------------------
B-------------------------------------
G-------------------------------------
D-2-222------------2-222--------------
A-0-000-4-2-22-222-0-000-4-2-22-222---
E-------2-0-00-000-------2-0-00-000---

(continued)
E-------------------------------------
B-------------------------------------
G--------------------7-7-7-7-7-7-7-7--
D-2-222--------------7-7-7-7-7-7-7-7--
A-0-000-4-2-22-222---5-5-5-5-5-5-5-5--
E-------2-0-00-000--------------------
                     -Not palm muted-
[ Tab from: http://www.guitartabs.cc/tabs/g/good_charlotte/my_bloody_valentine_tab_ver_3.html ]
pre-chorus (this parts kinda confusing, listen to the song carefully as u play it)
E----------------------------------------------------------
B----------------------------------------------------------
G--4--4-44-44-4-6-7--7-77-77------------------------777777-
D--4--4-44-44-4-6-7--7-77-77-----------4----------2-777777-
A--2--2-22-22-2-4-5--5-55-55-----------4----------2-555555-
E-----------------------------m2m2m2m2-2m0m0m0m0-0--------

Chorus (x4)
E--------------------------------------------
B--------------------------------------------
G-2-2-222------------------7-7-777-----------
D-2-2-222-2-22-222-4-4-444-7-7-777-----------
A-0-0-000-2-22-222-4-4-444-5-5-555-----------
E---------0-00-000-2-2-222-------------------


Bridge (played soft with no distortion)
E------------------5---------------------5--------------
B----------------6----6----------------6----6-----------
G-2-----------7--------7--2---------7--------7----------
D-2-----2-----7---------7-2----2----7---------7---------
A-0-----2-----5-----------0----2----5-------------------
E-------0----------------------0------------------------
He dropped u off I followed him home. . .

bridge ends on this
E--------------
B--------------
G--------7-----
D--------7-----
A--------5-----
E--------------
cuz im so in love with you

Outro (begins at the very end of last chorus)
E-----------------------------------------------------
B-3-3-3-3-5-5-5-5-7-7-7-7-9-9-9-9-1111111113131313----
G-2-2-2-2-4-4-4-4-6-6-6-6-8-8-8-8-1010101012121212----
D-0-0-0-0-2-2-2-2-4-4-4-4-6-6-6-6-8-8-8-8-10101010----
A-----------------------------------------------------
E-----------------------------------------------------

(continued)
E---------------------------------2--------
B---------------------------------2--------
G--15151515151515151515151515-----2--------
D--14141414141414141414141414-----4--------
A--12121212121212121212121212-----4--------
E---------------------------------2--------
                              -No distortion-
beautiful, spooky, very cool. 

The order it goes in is

Intro
Pre-Verse
Verse
Pre-Chorus
Chorus
Verse
Pre-Chorus
Chorus
Bridge
Chorus
Outro
Comments