Good Charlotte - My Bloody Valentine Chords & Tabs

 

My Bloody Valentine Chords & Tabs

Good Charlotte Chords & Tabs

Version: 1 Type: Tab 0 ratings
1 star 2 stars 3 stars 4 stars 5 stars
comments

My Bloody Valentine Tab

   
#-----------------------------------------------------------------------------#
#-- File created with Instab - http://www.pconline.com/~smcarey/instab.html --#
#-----------------------------------------------------------------------------#

Author/Artist: Good Charlotte
Title: Bloody Valentine
Album: The young and the hopeless
Transcribed by: Fraser Thomson
Email: rip_kurt_cobain@hotmail.com

Drop C
d            Pedal options: Classic reverb (amp reverb good)
a                           Phaser pedal(set to low frequency)
f     
C
G
C

INTRO
---------------------8-----|---------------------8----------------------------
---------------------8-----|---------8-----10----9----------------------------
---5-----------------10----|---5-----7-----9-----10---------------------------
---5-----5-----7-----10----|---5-----5-----7-----10---------------------------
---3-----5-----7-----8-----|---3-----5-----7-----8----------------------------
---------5-----7-----------|---------5-----7----------------------------------
   (clean guitar)     opp. reverb, slight phaser                        

------------------------------------------------------------------------------
------------------------------------------------------------------------------
------------------------------------------------------------------------------
-33333333-33333333-33333333-33333333------------------------------------------
-33333333-33333333-33333333-33333333------------------------------------------
-33333333-33333333-33333333-33333333------------------------------------------
 heavy guitar (orchestra fills the progression)up AND downstrokes are used    

VERSE
------------------------------------------------------------------------------
------------------------------------------------------------------------------
------------------------------------------------------------------------------
-10-10-10-10-10---7-55555--10-10-10-10-10---7-55555--10-10-10-10-10---7-55555-
-10-10-10-10-10---7-55555--10-10-10-10-10---7-55555--10-10-10-10-10---7-55555-
-10-10-10-10-10---7-55555--10-10-10-10-10---7-55555--10-10-10-10-10---7-55555-
  verse riff all palm muted                                                   

------------------------------------------------------------------------------
------------------------------------------------------------------------------
------------------------------------------------------------------------------
--3-3-3-3-3-3--3h5------------------------------------------------------------
--3-3-3-3-3-3--3h5------------------------------------------------------------
--3-3-3-3-3-3--3h5------------------------------------------------------------
  after the  last measure of the verse riff play this                         




PRE CHORUS
------------------------------------------------------------------------------
------------------------------------------------------------------------------
------------------------------------------------------------------------------
--0----0--2--3-----------7777-7--5555-5--333333333333-------------------------
--0----0--2--3-----------7777-7--5555-5--333333333333-------------------------
--0----0--2--3-----------7777-7--5555-5--333333333333-------------------------
   you mourn the death...the night..he...died                  
[ Tab from: http://www.guitartabs.cc/tabs/g/good_charlotte/my_bloody_valentine_tab.html ]
----------------------------------------|----------------|--------------------
----------------------------------------|----------------|--------------------
----------------------------------------|----------------|--------------------
--0----0--2--3-----------7777-7--5555-5-|xx3-xx3-xx3-3h5-|-3333333333333------
--0----0--2--3-----------7777-7--5555-5-|xx3-xx3-xx3-3h5-|-3333333333333------
--0----0--2--3-----------7777-7--5555-5-|xx3-xx3-xx3-3h5-|-3333333333333------
   you mourn the death...one     last   time     (THIS)   (OR THIS)           


CHORUS
-------------------------------------|----------------------------------------
-------------------------------------|----------------------------------------
--5-5-555----------------------------|-5-5-555--------------------------------
--5-5-555--555-555--7-7-777--333-333-|-5-5-555--555-555--7-7-777--333-333-----
--3-3-333--555-555--7-7-777--333-333-|-3-3-333--555-555--7-7-777--333-333-----
-----------555-555--7-7-777--333-333-|----------555-555--7-7-777--333-333-----
  oh my love...please dont' cry...                              

BASS VERSE
----------------------------|-------------------------------------------------
----------------------------|-------------------------------------------------
----------------------------|-------------------------------------------------
----------------------------|-------------------------------------------------
----------------------------|-------------------------------------------------
-10-10-10-10-10--7--555555--|-10-10-10-10-10--7--555555-----------------------
 

------------------------------------------------------------------------------
------------------------------------------------------------------------------
------------------------------------------------------------------------------
------------------------------------------------------------------------------
------------------------------------------------------------------------------
-10-10-10-10-10--7-555555-3333333h5-------------------------------------------
                                                                              

-------------------10^---------------------------10^--------------------------
------------------------------------------------------------------------------
------------------------------------------------------------------------------
------------------------------------------------------------------------------
------------------------------------------------------------------------------
------------------------------------------------------------------------------
 guitar comes in with ^^^ each time bass plays 5th fret, same with guitar.    






----------------------|----------------------|--------------------------------
----------------------|----------------------|--------------------------------
----------------------|----------------------|--------------------------------
----------------------|----------------------|--------------------------------
----------------------|----------------------|--------------------------------
-10-10-10-10-10--7-5--|--10-10-10-10-10--7-5-|-10-10-10-10-10--7-5-3333333h5--
 then guitar comes in wih same part as bass   (keep playing till verse ends)  

BRIDGE
-----------|-------------------|----------8-----------------------------------
--3--------|--------7----------|----------8-----------------------------------
--5--------|--------6----------|----------10----------------------------------
--5--------|--------5----------|----------10----------------------------------
--3--------|--------5----------|----------8-----------------------------------
-----------|--------5----------|----------------------------------------------
 he dropped you off........followed him home...  phaser/reverb  (x5)  

OUTRO
---------------------------------------------------------------------7--------
---------------------------------------------------------------------10-------
---------------------------------------------------------------------9--------
--777--333333333333333333333333333333333333333333333333333333333-----7--------
--777--333333333333333333333333333333333333333333333333333333333-----7--------
--777--333333333333333333333333333333333333333333333333333333333-----7--------
 all i know is i love you....toni...ght...TONIGHT   (fade out)   end with
Comments