Good Charlotte - Movin On Chords & Tabs

 

Movin On Chords & Tabs

Good Charlotte Chords & Tabs

Version: 5 Type: Tab 0 ratings
1 star 2 stars 3 stars 4 stars 5 stars
comments

Movin On Tab

   
intro:

eb ---------14-14-------11-11---------\
Bb ---12-12-------12-12--------------- \
Gb -----------------------------------  \
Db -----------------------------------  / play this a couple of times
Ab ----------------------------------- /
Eb -----------------------------------/


stanza:
      
eb --------------------------------------------------------------------------
Bb --------------------------------------------------------------------------
Gb ---99--999--999--999--966--666--666--666-6--------------------------------
Db ---99--999--999--999--966--666--666--666-677--777--777--777--799999999----
Ab ---77--777--777--777--744--444--444--444-477--777--777--777--799999999----
Eb ------------------------------------------55--555--555--555--577777777----
       palm mute E C# A
   
  
refrain:
[ Tab from: http://www.guitartabs.cc/tabs/g/good_charlotte/movin_on_tab_ver_5.html ]
eb --------------------------------------------------------------------------
Bb --------------------------------------------------------------------------
Gb ------------9999------------9999------------9999-6666--7777--9------------
Db --7777-9999-9999--7777-9999-9999--7777-9999-9999-6666--7777--9------------
Ab --7777-9999-7777--7777-9999-7777--7777-9999-7777-4444--7777--9------------
Eb --5555-7777-------5555-7777-------5555-7777------------5555--7------------
                                                          p.m.

   This is the chorus(rapid strumming)

eb --------------------------------------------------------------------------
Bb --------------------------------------------------------------------------
Gb --9--7--strum each chord 16 times-----------------------------------------
Db --9--7--------------------------------------------------------------------
Ab --7--5--------------------------------------------------------------------
Eb --------------------------------------------------------------------------


   This is the bridge; palm mute

eb -------------------------\
Bb ------------------------- \
Gb --------9999---9999------  \
Db -----999----999----99----  /play this a couple of times
Ab --777-------------------- /
Eb -------------------------/


outro:

eb ---------14-14-------11-11---------\
Bb ---12-12-------12-12--------------- \
Gb -----------------------------------  \
Db -----------------------------------  / play this a couple of times
Ab ----------------------------------- /
Eb -----------------------------------/


tabbed by Paul Anthony Bulao
e-mail me if there are corrections in this tab 
stish_05@yahoo.com
Comments