Good Charlotte - Movin On Chords & Tabs

 

Movin On Chords & Tabs

Good Charlotte Chords & Tabs

Version: 4 Type: Tab 0 ratings
1 star 2 stars 3 stars 4 stars 5 stars
comments

Movin On Tab

Moving On  -  Good Charlotte

Tabbed by IPE
This is pretty simple...
You've got everything you need here...!

Intro (guitar 1)		   (guitar 2)
eb-12-12-14-14-12-12-11-11-| --------------------|
Bb-12-12-12-12-12-12-12-12-| --------------------|
Gb-------------------------| -9..----------------|
Db--------x6---------------| -9..--9-9—-7..—-7/9-|
Ab-------------------------| -7..—-7/9—-7..—-7/9-| 
Eb-------------------------| -----------5..—-5/7-|
[ Tab from: http://www.guitartabs.cc/tabs/g/good_charlotte/movin_on_tab_ver_4.html ]
Verse			  now everybody knows that everybody...
eb-------------------|------------------|
Bb-------------------|------------------|
Gb---9---6-----------|---------9-9-9----|
Db---9---6---7---9---|-7---9---9-9-9—-x2|
Ab—--7---4---7---9---|-7---9---7-7-7----|
Eb-----------5---7---|-5---7------------|

Pre-chorus
eb----------------|
Bb----------------|
Gb----------9---9-|
Db--7---9---9---9-|
Ab--7---9---7---4-|
Eb--5---7---------|

Chorus
eb--------|
Bb--------|
Gb--9---7-|
Db--9---7-|
Ab--7---5-|
Eb--------|

Break
eb------------------------|
Bb------------------------|
Gb----------999-----99----|
Db------999-----999----99-|
Ab--777-------------------|
Eb------------------------|
Comments