Good Charlotte - Mountain Chords & Tabs

 

Mountain Chords & Tabs

Good Charlotte Chords & Tabs

Version: 4 Type: Tab 0 ratings
1 star 2 stars 3 stars 4 stars 5 stars
comments

Mountain Tab

Mountain- Good Charlotte
Drop D Tuning
I took someone else's tab and modified. I think it sounds better like this, but I'll
let you guys be the judge of that.

Intro
e|--------------------------------------------------|
b|--------------------------------------------------|
g|-----6---6--------------------6---6---------------|
d|-----6---6------------4-------6---6------------4--|
a|-----3---4------4-------------3---4-------4-------|
d|-------------4--------------------------4---------|

Verse
e|----------------------------------------------------------------------------|
b|----------------------------------------------------------------------------|
g|-----6-6-6-6----8-8-8-8-----------------6-6-6-6----3-3-3-3------------------|
d|-----6-6-6-6----8-8-8-8---4-4-4-4-----6-6-6-6----3-3-3-3---4-4-4-4----------|
a|-----4-4-4-4----6-6-6-6---4-4-4-4------4-4-4-4---1-1-1-1---4-4-4-4----------|
d|------------------------------4-4-4-4------------------------------4-4-4-4--|
pm ........................................................................... (second verse don't)
Pre-Chorus (So tell me what you want...)
e|------------------------------------------|
b|------------------------------------------|
g|---------------6-6-6-6--------------------|
d|---4-4-4-4---6-6-6-6--6-6-6-6--8-8-8-8----|
a|---4-4-4-4---4-4-4-4--6-6-6-6--8-8-8-8----|
d|---4-4-4-4--------------6-6-6-6--8-8-8-8--|X2

Chorus
e|-------------------------------------------------------------|
b|-------------------------------------------------------------|
g|-----6---6--------------------6---6--------------------------|
d|-----6---6------------4-------6---6-------4-4-4-4-4-4-4-4-4--|
a|-----3---4------4-------------3---4-----4-4-4-4-4-4-4-4-4----|
d|-------------4----------------------------4-4-4-4-4-4-4-4-4--|
[ Tab from: http://www.guitartabs.cc/tabs/g/good_charlotte/mountain_tab_ver_4.html ]
Post-Chorus (All my life's been wasted...)
e|----------------------------------------|
b|----------------------------------------|
g|--6-6-6---6-6-6-------------------------|
d|--6-6-6---6-6-6----4-4-4-4--4-4-4-4-----|
a|--3-3-3---4-4-4----4-4-4-4--4-4-4-4-----|
d|----------------------4-4-4-4--4-4-4-4--|

Verse
Pre-Chorus
Chorus
Post-Chorus (Keep playing last note)

Bridge (Years go by...)
e|------------------------------------------------------------|
b|------------------------------------------------------------|
g|---5-5--6--6------------------------------------------------|
d|---5-5--6--6---6-6-6-6--8-8-8-8----5-5--6-6--6-6-6-6-6------|
a|---3-3--4--4---6-6-6-6--8-8-8-8----3-3--4-4--6-6-6-6-6------|
d|-----------------6-6-6-6--8-8-8-8----------------6-6-6-6-6--|

Chorus (keep doing the same thing over)
Chorus in power chords

Outro
e|-----------------------------------------------------------------------------------------|
b|-----------------------------------------------------------------------------------------|
g|-----------------------------------------------------------------------------------------|
d|--4-4----4-4-4-4-4---4-4----4-4-4-4-4 ----------------4-4---4-4-4-4-4-4---4-4---4-4-4-4--|
a|--4-4----4-4-4-4-4---4-4----4-4-4-4-4--------4____-4-4---4-4-4-4-4-4---4-4---4-4-4-4-----|
d|--4-4----4-4-4-4-4---4-4----4-4-4-4-4 ----------------4-4---4-4-4-4-4-4---4-4---4-4-4-4--|

e|----------------------------------------------------------------------------|
b|----------------------------------------------------------------------------|
g|----------------------------------------------------------------------------|
d|------------4-4----4-4-4-4-4-4----4-4----4-4-4-4-4------4-4---4-4-4-4-4 ----|
a|---4____--4-4----4-4-4-4-4-4---4-4----4-4-4-4-4-------4-4---4-4-4-4-4----4--|___________
d|------------4-4----4-4-4-4-4-4----4-4----4-4-4-4-4------4-4---4-4-4-4-4 ----|
 pm
Comments