Good Charlotte - Mountain Chords & Tabs

 

Mountain Chords & Tabs

Good Charlotte Chords & Tabs

Version: 1 Type: Bass Tab

Mountain Bass Tab

   
                       Mountain - Good Charlotte
tabbed by: Mr. Hazeleyes
email: mr.hazeleyes@hotmail.com
tuning: EADG (Standard)

Hay this is only my second tab. I hope you like playing it as much as I do! NOTE: All 
close together are 1's, not 11's, there are NO elevens in all of this song!

Intro
G|------------------------------|
D|------------------------------|
A|------------------------------|
E|---1111111111111111---5~--4~--|   2x

G|---------------------|
D|---------------------|
A|---------------------|
E|---1111111111111111--|

Verse 1
G|----------------------------------------------------------|
D|----------------------------------------------------------|
A|-------------------------------2222--0000-----------------|
E|---0000--2222----5555--3333------------------0000--0000---|  2x

Bridge
G|-----------------------------------------|
D|-----------------------------------------|
A|---33333333-66666666-99999999-11111111---|
E|-----------------------------------------|   4x

Chorus A
G|------------------------------------------|
D|------------------------------------------|
A|---2~----------3~-------------------------|
E|-------2~--0~------2~--3333333333333333---|

G|--------------------------------------------------------|
D|--------------------------------------------------------|
A|---3~------------------------3~-------------------------|
E|-------2~--1111111111111111------3~--4444444444444444---|
[ Tab from: http://www.guitartabs.cc/tabs/g/good_charlotte/mountain_btab.html ]
Verse 2
G|----------------------------------------|
D|----------------------------------------|
A|----------------------------------------|
E|---0000----0000----3333----0000--0000---|   2x

{Bridge + Chorus)

Verse 3
G|-------------------------------------------------------------------|
D|-------------------------------------------------------------------|
A|---------------------4~--4~-----------------4~--4~-----------------|
E|---4444444444444444----------2~--222222222----------2~--33333333---|

Chorus B
G|----------------------------------------------------|
D|----------------------------------------------------|
A|---2~--------------3~------2~--------------3~-------|
E|-------2~--0~--3~------3~------2~--0~--3~------3~---|

Verse 4
G|---------------------------------------------------------------------|
D|---------------------------------------------------------------------|
A|---444444444444444433333333333333332222222222222222------------------|
E|---------------------------------------------------2222222222222222--| 2x

Outro
G|-----------------------------|
D|-----------------------------|
A|-----------------------------|
E|---11x--11111x--11x--11111x--|  x2

G|-----------------------------|
D|-----------------------------|
A|-----------------------------|
E|---22x--22222x--22x--22222x--|


G|-----------------------------|
D|-----------------------------|
A|-----------------------------|
E|---11x--11111x--11x--111111-2|