Good Charlotte - Motivation Proclamation Chords & Tabs

 

Motivation Proclamation Chords & Tabs

Good Charlotte Chords & Tabs

Version: 7 Type: Tab 0 ratings
1 star 2 stars 3 stars 4 stars 5 stars
comments

Motivation Proclamation Tab

   
lyrics included. enjoy!

verse 1: acoustic
e-333333-333333-222222-333333->
B-333333-333333-333333-333333->
G-000000-000000-222222-000000->
D-000000-000000-000000-000000->  repeat 3x
A-222222-333333--------333333->
E-333333---------------------->
   spend your lazy, endless crazy, days inside my head You're so selfish,
you're not the only, one who thinks he's dead I'm paid to smile; now I'm on
trial, for what you think I said

pre-chorus:
e-----3333-----3333-----3333-----2222-----3333-----3333-222222222->
B-----3333-----3333-----3333-----3333-----3333-----3333-333333333->
G-----0000-----0000-----0000-----2222-----0000-----0000-222222222->
D-2~~-2222-----0000-----xxxx-0~~-0000-----0000-----xxxx-000000000->
A----------3~~-3333-0~~-0000----------3~~-3333-0~~-0000----------->
E----------------------------------------------------------------->
    But I never said, that everything, would be ok And I never said, that
we would live, to see another day

chorus: (distorted) (I also find it much easier to play in drop d tuning)
        (A= 10th fret, B= 12th fret)
e------------------------------->        e--------------------->
B------------------------------->        B--------------------->
G------------------------------->        G--------------------->
D-5-5----A-A----B-B----AAAA-9-7-> repeat D-5555-AAAA-BBBB-AAAA-> repeat
A-5-5----A-A----B-B----AAAA-9-7->  then: A-5555-AAAA-BBBB-AAAA->
D-5-5----A-A----B-B----AAAA-9-7->        D-5555-AAAA-BBBB-AAAA->
     Motivate me, I wanna get myself out of this bed Captivate me, I want
good thoughts inside of my head If I fall down, would you come around, and
pick me right up off the ground If I fall down, would you come around, and
pick me right up off the ground

verse 2:
e-333333-333333-222222-333333->
B-333333-333333-333333-333333->
G-000000-000000-222222-000000->
D-000000-000000-000000-000000->  repeat 3x
A-222222-333333--------333333->
E-333333---------------------->
Unrealistic, un-arsis tic, you say I'm selfish, and absurd You try to
change me, try to save me, you say I'm gonna learn I'm so blind, I'm out of
time, you're so un-kind, sometimes I never lied, I never lied, I never lied
[ Tab from: http://www.guitartabs.cc/tabs/g/good_charlotte/motivation_proclamation_tab_ver_7.html ]
repeat pre-chorus then repeat chorus

guitar 2 plays this throughout the solo part:
e--------------------->
B--------------------->
G--------------------->
D-5555-AAAA-BBBB-AAAA-> repeat 4x
A-5555-AAAA-BBBB-AAAA->
D-5555-AAAA-BBBB-AAAA->

solo: guitar 3 (also distorted)
e-10~~--7~~--10-10-7~~--7-5-------5h7p5-3-0-------------7-5-3-0---->
B------8----8--8--8--------8-5-5-8---------3-0---------3-------3-0->
G-----------------------------7---------------2-0-2h4v------------->
D------------------------------------------------------------------>
A------------------------------------------------------------------>
E------------------------------------------------------------------>

e---------3---3---3h5p3-5-7-3-0-3/7-7-10-7-5-3---3------3-3-3-3-3--->
B-3/8--3-5-3-5-3-5----------------------------3-5--------5---5------>
G----0-------------------------------------------------0------------>
D-------------------------------------------------0-0-2------------->
A------------------------------------------------------------------->
E------------------------------------------------------------------->

e----3/7~~\5~~-->
B-3-5----------->
G---------------> (phew!)
D--------------->
A--------------->
E--------------->

pre-chorus 2:
e------------------------>
B------------------------>
G-2222-7777-5555-7777777->
D-2222-7777-5555-7777777->
A-0000-5555-3333-5555555->
D------------------------>
  cuz everything will be ok, you know, we're gonna live to see another day

chorus 2:
e--------------------->           e----->
B--------------------->           B----->
G--------------------->           G----->
D-5555-AAAA-BBBB-AAAA-> repeat 4x D-5~~->
A-5555-AAAA-BBBB-AAAA->   end on: A-5~~->
D-5555-AAAA-BBBB-AAAA->           D-5~~->
Motivate me
I wanna get myself out of this...
Motivate me
I wanna get myself out of this...
Motivate me
I wanna get myself out of this...
Motivate me
I wanna get myself out of this bed!

outro:
e---------------------------------------->
B---------------------------------------->
G---------------------------------------->
D-55xx--55xx--55xx--55xx--AAA-A-9-7-5~~-->
A-55xx--55xx--55xx--55xx--AAA-A-9-7-5~~-->
D-55xx--55xx--55xx--55xx--AAA-A-9-7-5~~-->
Comments