Good Charlotte - Motivation Proclamation Chords & Tabs

 

Motivation Proclamation Chords & Tabs

Good Charlotte Chords & Tabs

Version: 5 Type: Tab 0 ratings
1 star 2 stars 3 stars 4 stars 5 stars
comments

Motivation Proclamation Tab

   
Good Charlotte  
The Motivation Proclamation
Good Charlotte
Standard Tuning
Guitar 1 - Benji
Guitar 2 - Billy

Intro/Verse(strumming not shown)
E-3—-3—-2—-3--
B-3—-3—-3—-3--
G-0—-0—-2—-0--
D-0—-2—-0—-2--
A-2—-3—-x—-3--
E-3—-x—-x—-x—-

Guitar 2(just mess around with these notes or others in Em scale)
E-------7--
B-----8----
G---7------
D-7--------
A----------
E----------

Pre Chorus(strumming not shown)
E-2—-3—-0—-2—-3-—0—-2—-2--
B-3—-3—-1—-3—-3-—1—-3—-3--
G-2—-0—-2—-2—-0-—2—-2—-2--
D-0—-2—-2—-0—-2-—2—-0—-0--
A-x—-3—-0—-x—-3—-0—-x—-x--
E-x—-x—-x—-x—-x-—x—-x—-x—

Chorus – Guitar 1
E-33-3-33-3-22-2-3-3-3-3-3--
B-33-3-33-3-33-3-3-3-3-3-3--
G-00-0-00-0-22-2-0-0-0-0-2--
D-00-0-22-2-00-0-2-2-2-2-2--
A-22-2-33-3-xx-x-3-3-3-2-0--
E-33-3-xx-x-xx-x-x-x-x-x-x--

Guitar 2
E-----------------------------
B-----------------------------
G------55-5-77-7-5-5-5-5-4-2--
D-55-5-55-5-77-7-5-5-5-5-4-2--
A-55-5-33-3-55-5-3-3-3-3-2-0--
E-33-3------------------------

Post Chorus – Guitar 1
E-3333-3333-2222-3333--
B-3333-3333-3333-3333--
G-0000-0000-2222-0000--
D-0000-2222-0000-2222--
A-2222-3333-xxxx-3333--
E-3333-xxxx-xxxx-xxxx—-

Guitar 2
E----------------------
B----------------------
G------5555-7777-5555--
D-5555-5555-7777-5555--
A-5555-3333-5555-3333--
E-3333-----------------

(Verse)
(Pre Chorus)
(Chorus)
(Post Chorus)

Solo
E--------------------------------|---------------------------------|
B----15----12----15----------12~~|---------------------------------|
G-------------------------12-----|-14h12----------12-14-12-14-14b--|
D-12(12)12----12(12)12-12--------|-------14-12-14------------------|
A--------------------------------|---------------------------------|
E--------------------------------|---------------------------------|
[ Tab from: http://www.guitartabs.cc/tabs/g/good_charlotte/motivation_proclamation_tab_ver_5.html ]
E--------------------------------|---------------------------------|
B--------------------------------|---------------------------------|
G--------------------------------|----------12-------12-12-------12|
D-14h12----------12-14-12-14-----|-12-12h14----12h14-------12h14---|
A-------14-12-14-------------12/-|---------------------------------|
E--------------------------------|---------------------------------|

E----------------------------|----10-12b-------------------|
B----------------------------|-12--------10----------------|
G-------12-------12-------12-|--------------12-------12-12-|
D-12h14----12h14----12h14----|-----------------12h14-------|
A----------------------------|-----------------------------|
E----------------------------|-----------------------------|
                               
E|-------------xxxx-------------xxxx------------------------|
B|-------------xxxx-------------xxxx------------------------|
G|-------12-12-xxxx-------12-12-xxxx-------12-12---15b/14b--|
D|-12h14-------xxxx-12h14-------xxxx-12h14------------------|
A|-------------xxxx-------------xxxx------------------------|
E|-------------xxxx-------------xxxx------------------------|

Pre Chorus 2(strumming not shown)
E-2—-3—-0—-2--
B-3—-3—-1—-3--
G-2—-0—-2—-2--
D-0—-2—-2—-0--
A-x—-3—-0—-x--
E-x—-x—-x—-x—

(Chorus)

Outro – Guitar 1
E-33-xx-3-33-xx-3-33-xx-3-3-3-3-3-3-3--
B-33-xx-3-33-xx-3-33-xx-3-3-3-3-3-3-3--
G-00-xx-0-00-xx-0-00-xx-0-0-0-0-0-2-0--
D-00-xx-0-00-xx-0-00-xx-0-2-2-2-2-2-0--
A-22-xx-2-22-xx-2-22-xx-2-3-3-3-3-0-0--
E-33-xx-3-33-xx-3-33-xx-3-x-x-x-x-x-x--

Guitar 2
E----------------------------------------
B----------------------------------------
G-------------------------5-5-5-5-4-2----
D-55-xx-5-55-xx-5-55-xx-5-5-5-5-5-4-2-5--
A-55-xx-5-55-xx-5-55-xx-5-3-3-3-3-2-0-5--
E-33-xx-3-33-xx-3-33-xx-3-------------3--

This is one of my favorite songs by Good Charlotte. So far all the solo tabs ive
seen were wrong. Im not sayin mine is 100% correct, but i think mine is the
closest to perfection. I know though for a fact it's in Em scale, so it might be
easier to just listen to the song and tab it for your self. Have Fun!
Comments