Good Charlotte - Motivation Proclamation Chords & Tabs

 

Motivation Proclamation Chords & Tabs

Good Charlotte Chords & Tabs

Version: 1 Type: Tab 0 ratings
1 star 2 stars 3 stars 4 stars 5 stars
comments

Motivation Proclamation Tab

   
Good Charlotte  The Motivation Proclamation. Tabbed by Sparky and Andrew

/=slide up \=slide down x=dead note ^=bend

The Chords:
   G  C  D  1? 2?  (note: G, C, and D become power chords in the chorus)
e--3--0--2--3--3--|
b--3--1--3--3--3--|
g--0--0--2--0--2--|
d--0--2--0--2--0--|
a-----3-----------|
e--3--0-----------|

I think that this is how the intro goes:

Intro/Verse 1:
[G]spend your lazy |[C] endless crazy [D]|[C] days inside my head
[G]you're so selfish |[C] your not the only[D]
[C]one who thinks he's dead
[G]i'm paid to smile |[C] now I'm on [D]trial[C]
for what you think i said[G]

Bridge (i think):
[G]cuz i never [?2]said | that e[?1]verything would be o[D]kay
and i never [G]said | that [?1]we would live to see another day 
[D] yeah yeah yeah yeah

Chorus:
[G] [C]        [D]        [C]          [Cb]  [A]     [G]
    motivate me | i wanna get myself out of  this   bed
[C]         [D]        [C]                [Cb]  [A]    [G] 
captivate me | i want good thoughts inside of   my   head
              [C]               [D]
when i fall down would you come around
             [C]              [G]
and pick me right up off the ground
              [C]               [D]
when i fall down would you come around
             [C]              [G]
and pick me right up off the ground
[ Tab from: http://www.guitartabs.cc/tabs/g/good_charlotte/motivation_proclamation_tab.html ]
Verse 2 (*G, C and D* just like in the intro):
i'm un-artistic / unrealistic
you say i'm selfish and absurb
you try to change me / try to save me
you say i'm gonna learn
i'm so blind, i'm out of time
you're so unkind sometimes
i never lied, i never lied, i never lied

Bridge

Chorus

Then the solo:					  *  not sure here   *
e---------7----------7--5-------------5---5-6-5------------------------
b------------------8------8-5----5--8---8-------8--5-------------------
g--7-7--7---7-7--7------------7----------------------7-4-----4-7/12\7--
d--------------------------------------------------------7-5-----------
a----------------------------------------------------------------------
e----------------------------------------------------------------------

e------------------------------7---7-7-9--12--9--------------------------
b-----8-----8-----8-----8--8-8---8--------------8-----8------8----------8
g-7-9---7-9---7-9---7-9---------------------------7-9----7-9---xxxx-7-9--
d------------------------------------------------------------------------
a------------------------------------------------------------------------
e------------------------------------------------------------------------

yeah, cuz everthing...(Bridge)
e-----------------------|
b----------8---8---6^-5-|
g-xxxx-7-9---9----------|
d-----------------------|
a-----------------------|
e-----------------------|

Play outro how the Chorus is played except without the slide of C, Cb, A


Thanks to Sparky (whoever he may be) as i took his tab of this and modified it(added a solo and corrected a few bits and pieces).

			 
If its still wrong you can email me at: arjeffery@guitarworkssa.com

								Andrew
Comments