Good Charlotte - Motivation Proclamation Chords & Tabs

 

Motivation Proclamation Chords & Tabs

Good Charlotte Chords & Tabs

Version: 1 Type: Bass Tab 0 ratings
1 star 2 stars 3 stars 4 stars 5 stars
comments

Motivation Proclamation Bass Tab

   
-------------------------------------------------------------------------------
	         The Motivation Proclaimation - Good Charlotte
-------------------------------------------------------------------------------

Artist: Good Charlotte
Tabbed By : Zero is great man
Albulm: Good Charlotte
Song Title: The motivation proclaimation (Track 3)

Tuning:
[5-string bass]= BEADG
[4-string bass]= DADG

[5-string]
Chorus Part 1: 
"Motivate me, I wanna..."
G|------------------------------------------|
D|------------------------------------------|
A|------3-3-3--3-5-5--5-5-5-3-3-3-2-2-2-0---|
E|-3-3------------------------------------3-|
B|------------------------------------------|

Chorus Part 2: "If I fall down..."
G|------------------------------------|
D|------------------------------------|
A|----------3-3-3-3-------------------|
E|-3-3-3-3--------------------3-3-3-3-|
B|-------------------3-3-3-3----------|

Verse:"realistic and unartistic
G|--------------------------------------|
D|--------------------------------------|
A|-----------2p-3-3-3--3-5-5-5--5p-3----|
E|-2p-3-3-3---------------------------3-|
B|--------------------------------------|

Pre-chorus part 1: "Cause I never said,..."
G|------------------------------------|
D|------------------------------------|
A|------3-3-3-3-3-----------3-3-3-3-3-|
E|-3-3--------------------------------|
B|-----------------3-3-3-3------------|

Pre-chorus part 2: "live to see another day.."
G|------------------|
D|------------------|
A|------------------|
E|-5-5--3-3-2-2-0-0-|
B|------------------|
[ Tab from: http://www.guitartabs.cc/tabs/g/good_charlotte/motivation_proclamation_btab.html ]
Outro:
G|----------------------------------|
D|----------------------------------|
A|--------------------5-5-5-3-3-2-0-|
E|-3-3--2-3-3--2-3-3----------------|
B|----------------------------------|

--------------------------------------------------------------------------------
[4-string Bass] 

Chorus Part 1: Motivate me, I wanna..."
G|--------------------------------------|
D|--------------------------------------|
A|------3-3-3--3-5-5--5-5-5-3-3-2-2-0---|
D|-5-5--------------------------------5-|

Chorus Part 2: If I fall down..."
G|------------------------------------|
D|------------------------------------|
A|----------3-3-3-3-----------3-3-3-3-|
D|-5-5-5-5-----------0-0-0-0----------|

Verse: "Realistic and unartistic"
G|------------------------------------|
D|------------------------------------|
A|----------2p-3-3-3--3-5-5-5--5-3p---|
D|-5p-6-6-6-------------------------6-|

Pre-chorus part 1: "Cause I never said,..."
G|------------------------------------|
D|------------------------------------|
A|------3-3-3-3-3-----------3-3-3-3-3-|
E|-5-5-------------0-0-0-0------------|

Pre-chorus part 2: "live to see another day.."
G|------------------|
D|------------------|
A|-5-5--3-3-2-2-0-0-|
D|------------------|

Outro:
G|----------------------------------|
D|----------------------------------|
A|------------------5-5-5-3-3--2--0-|
D|-5-5--5-5--5-5-5------------------|


| /  slide up
| \  slide down
| h  hammer-on
| p  pull-off
| ~  vibrato
| +  harmonic
| x  Mute note

Feel free to comment or correct
===============================================================================
Comments