Good Charlotte - Meet My Maker Chords & Tabs

 

Meet My Maker Chords & Tabs

Good Charlotte Chords & Tabs

Version: 1 Type: Tab 0 ratings
1 star 2 stars 3 stars 4 stars 5 stars
comments

Meet My Maker Tab

Artist: Good Charlotte
Song: Meet My Maker (Bonus Track)
By: Me... "Jose Jankunas"
E-mail: jankunas_rock@hotmail.com

Note: This song is only in the "Death Version" of "The Chronicles of Life and Death" CD

.= do the last chord for a bunch of times (listen to the song for details)

Intro:

|------------------------------------------|
|------------------------------------------|
|--------------------4---------------------|
|--6---5---4---2---6-4-5---4---2-2-2-2-2-2-|
|--6---5---4---2---6-2-5---4---2-2-2-2-2-2-|
|--4---3---2---0---4---3---2---0-0-0-0-0-0-|

Verse:

|----------------------------------------------------------------------|
|----------------------------------------------------------------------|
|----------------------------------------------------------------------|
|----------------------------------------------------------------------|
|------2-----2---2-----2-----2---2-----2-----2---2-----2-----2---2-----|
|--4-4---4-4---4---0-0---0-0---0---2-2---2-2---2---0-0---0-0---0-------|

PreChorus:

|----------------------------------------|
|----------------------------------------|
|----------------------------------------|
|--6---5---4---2---6---5---4---2-2-2-2-2-|
|--6---5---4---2---6---5---4---2-2-2-2-2-|
|--4---3---2---0---4---3---2---0-0-0-0-0-|

Chorus:

|---------------------------------|
|---------------------------------|
|------4---------------4----------|
|--6---4---2---4---6---4---2---4--| (x2)
|--6---2---2---4---6---2---2---4--|
|--4-------0---2---4-------0---2--|

Post Chorus (thats how I call it)

|---------------------------------------------|
|--0---0-2-------0---0-2-------0---0-2-0------|
|----3-------------3-------------3-------3-1--|
|---------------------------------------------|
|---------------------------------------------|
|---------------------------------------------|

Verse:
[ Tab from: http://www.guitartabs.cc/tabs/g/good_charlotte/meet_my_maker_tab.html ]
|----------------------------------------------------------------------|
|----------------------------------------------------------------------|
|----------------------------------------------------------------------|
|----------------------------------------------------------------------|
|------2-----2---2-----2-----2---2-----2-----2---2-----2-----2---2-----|
|--4-4---4-4---4---0-0---0-0---0---2-2---2-2---2---0-0---0-0---0-------|

PreChorus:

|----------------------------------------|
|----------------------------------------|
|----------------------------------------|
|--6---5---4---2---6---5---4---2-2-2-2-2-|
|--6---5---4---2---6---5---4---2-2-2-2-2-|
|--4---3---2---0---4---3---2---0-0-0-0-0-|

Chorus:

|---------------------------------|
|---------------------------------|
|------4---------------4----------|
|--6---4---2---4---6---4---2---4--| (x2)
|--6---2---2---4---6---2---2---4--|
|--4-------0---2---4-------0---2--|

Bridge:

|-------------------------|
|-------------------------|
|-------------------------|
|--6----2---6----2---6----|
|--6-.--2---6-.--2---6-.--|
|--4----0---4----0---4----|

Bridge part 2 (just like the intro)

|------------------------------------------|
|------------------------------------------|
|--------------------4---------------------|
|--6---5---4---2---6-4-5---4---2-2-2-2-2-2-|
|--6---5---4---2---6-2-5---4---2-2-2-2-2-2-|
|--4---3---2---0---4---3---2---0-0-0-0-0-0-|

Chorus:

|---------------------------------|
|---------------------------------|
|------4---------------4----------|
|--6---4---2---4---6---4---2---4--| (x4)
|--6---2---2---4---6---2---2---4--|
|--4-------0---2---4-------0---2--|

Outro

|--------------------------------|
|--------------------------------|
|--------------------------------|
|--6----2---6----2---6----2--6---|
|--6-.--2---6-.--2---6-.--2--6---|
|--4----0---4----0---4----0--4---|
Comments