Good Charlotte - Little Things Chords & Tabs

 

Little Things Chords & Tabs

Good Charlotte Chords & Tabs

Version: 5 Type: Tab 0 ratings
1 star 2 stars 3 stars 4 stars 5 stars
comments

Little Things Tab

Email me with any questions StAtiCX6574@Aol.com

Intro:

---------------------------------------------
---------------------------------------------
--6-6-6-6---6------5-4-----------------------
--6-6-6-6---4------5-4----4-4-4-4---4---7---4  X4
--4-4-4-4---4------3-2----4-4-4-4---4---7---4
--------------------------2-2-2-2---2---5---2

The verse is all just bass.

---------------------------------------------
---------------------------------------------
--6-6-6-6---6------5-4-----------------------
--6-6-6-6---4------5-4----4-4-4-4---4---7---4  X2
--4-4-4-4---4------3-2----4-4-4-4---4---7---4
--------------------------2-2-2-2---2---5---2


Chorus
---------------------------------------------
---------------------------------------------
--6------------------------------------------
--6-------7-------4------7-------------------
--4-------7-------4------7-------------------
----------5-------2------5-------------------
(Hold each note for about a second)


------------------------------------------------
------------------------------------------------
------------------------------------------------
--4-----7---- -4---- 7-----4----7--- 4-- 7-7-7-7
--4-----7------4-----7-----4----7----4---7-7-7-7
--2-----5------2-----5-----2----5----2---5-5-5-5
  (Hold every note until the last 4)
[ Tab from: http://www.guitartabs.cc/tabs/g/good_charlotte/little_things_tab_ver_5.html ]
 ---------------------------------------------
---------------------------------------------
--6-6-6-6---6------5-4-----------------------
--6-6-6-6---4------5-4----4-4-4-4---4---7---4  X2
--4-4-4-4---4------3-2----4-4-4-4---4---7---4
--------------------------2-2-2-2---2---5---2

Bass plays verse

---------------------------------------------
---------------------------------------------
--6-6-6-6---6------5-4-----------------------
--6-6-6-6---4------5-4----4-4-4-4---4---7---4  X2
--4-4-4-4---4------3-2----4-4-4-4---4---7---4
--------------------------2-2-2-2---2---5---2

Chorus
---------------------------------------------
---------------------------------------------
--6------------------------------------------
--6-------7-------4------7-------------------
--4-------7-------4------7-------------------
----------5-------2------5-------------------
(Hold each note for about a second)

------------------------------------------------
------------------------------------------------
------------------------------------------------
--4-----7---- -4---- 7-----4----7--- 4-- 7-7-7-7
--4-----7------4-----7-----4----7----4---7-7-7-7
--2-----5------2-----5-----2----5----2---5-5-5-5
  (Hold every note until the last 4)

---------------------------------------------
---------------------------------------------
--6------------------------------------------
--6-------7-------4------7-------------------
--4-------7-------4------7-------------------
----------5-------2------5-------------------
(Hold each note for about a second)

---------------------------------------------
---------------------------------------------
--6-6-6-6---6------5-4-----------------------
--6-6-6-6---4------5-4----4-4-4-4---4---7---4  X2
--4-4-4-4---4------3-2----4-4-4-4---4---7---4
--------------------------2-2-2-2---2---5---2


  
Comments