Good Charlotte - Little Things Chords & Tabs

 

Little Things Chords & Tabs

Good Charlotte Chords & Tabs

Version: 4 Type: Tab 0 ratings
1 star 2 stars 3 stars 4 stars 5 stars
comments

Little Things Tab

I've seen too many wrong tabs for this song so I wrote this
tab.
(Spanish)
He visto muchas tabulaturas incorrectas para esta cancion
por eso la escribí bien.

Intro
------------------------------------
------------------------------------
-6----------------------------------
-6-(5x)-6-6---5---4--------6-6---5--
-4------6-6---5---4-(5x)---6-6---5--
--------4-4---3---2--------4-4---3--
[ Tab from: http://www.guitartabs.cc/tabs/g/good_charlotte/little_things_tab_ver_4.html ]
Chorus (Coro)
-------------------------------------
-------------------------------------
-6-----------------------------------
-6---6---4---------------------------
-4---6---4---------------------------
-----4---2---------------------------

Just after Chorus (Justo despues del coro)
---------------------
---------------------
---------------------
-2---5---------------
-2---5---------------
-0---3---------------

--------------------------
--------------------------
--------------------------
--2--5--6--7--8--9--------
--2--5--6--7--8--9--------
--0--3--4--5--6--7--------

This tab may have a few errors but it's a whole lot better than the other ones. If you like this tab, go check MxPx's "Fisrt Class Mail" tab, it's great!!!
Comments