Good Charlotte - Little Things Chords & Tabs

 

Little Things Chords & Tabs

Good Charlotte Chords & Tabs

Version: 3 Type: Bass Tab 0 ratings
1 star 2 stars 3 stars 4 stars 5 stars
comments

Little Things Bass Tab

name=Aaron
band=Good Charlotte
song=Little Things
inst_type=Bass
body=Into/Verse/Pre chorus
G|-----------------------------------------------------------------|
D|-----------------------------------------------------------------|
A|--4-4-4-4-4----------------------------0-----------------------|
E|--------------4-4-4-3-2-2-2-2-2--2-2---0---------------------|

Chorus (play it fast) x4
G|--------------------------------------------------------------------------------------------|
D|--------------------------------------------------------------------------------------------|
A|--4-4-4-4-4-4-4-4------------------------------------------------------------------------|
E|---------------------4-4-4-4-4-4-4-4-2-2-2-2-2-2-2-2-5-5-5-5-5-5-5-5---------------|
[ Tab from: http://www.guitartabs.cc/tabs/g/good_charlotte/little_things_btab_ver_3.html ]
End of Chorus x3                   1.                                 2.
G|--------------------------|--------------------------|------------------------------------------
D|--------------------------|--------------------------|------------------------------------------
A|--------------------------|--------------------------|------------------------------------------
E|-2-2-2-2---5-5-5-5-----|-2-2-2-2--5--6--7--8---|-2-2-2-2-5-6-7-8-9-10-11-12-13-14-

Outro (slow down ever time)
G|--------------------------------------------------|------|
D|--------------------------------------------------|------|
A|--4-4-4-4-4-------------------------------------|--4*-|
E|---------------4-4-4-3-2-2-2-2-2---2-2-5-0---|-----|

*let it ring

if u cant play this BASS IS NOT FOR U!
bassfreak_2k@hotmail.com
Comments