Good Charlotte - Lifestyles Of The Rich And Famous Chords & Tabs

 

Lifestyles Of The Rich And Famous Chords & Tabs

Good Charlotte Chords & Tabs

Version: 9 Type: Tab 0 ratings
1 star 2 stars 3 stars 4 stars 5 stars
comments

Lifestyles Of The Rich And Famous Tab

   
-------------------------------------------------------------------------------
            Good Charlotte - Lifestyles of the Rich and Famous
-------------------------------------------------------------------------------

Tabbed by:J.V
Email:xtremepoopmaster@aol.com

hey...here should be a pretty good version of this...

3 gtrs...
gtr.1 tuning:half step down (Eb Ab Db Gb Bb Eb)
gtr.2 tuning: Drop C# tuning(Db Ab Db Gb Bb Eb)
gtr.3 tuning:half step down (Eb Ab Db Gb Bb Eb)

Intro (volume swell...hit it and raise volume slowly..)
   ( gtr 1)                               
eb--2~------------~~~~~~~~~~------|
Bb--3~---------------~~~~~~~~~----|
Gb--2~---until -------~~~~~~------|
Db--0~-----singing---~~~~~~~~-----|
Ab--0~---------starts-~~~~~~~-----|
Db-------------------~~~~~~~~~----|
 |  ( gtr 2)                     |        
eb-----------------~~~~~~~~~~------|
Bb---3~---------------~~~~~~~~~----|
Gb---2~---until -------~~~~~~------|
Db---0~-----singing---~~~~~~~~-----|
Ab---0~---------starts-~~~~~~~-----|
Db---0~---------------~~~~~~~~~----|

Verse ("Always see it on tv...")  
(gtrs.1 and 3) (no ring)
eb|-2-2-------0-0-------3-3-------2-2--------|
Bb|-3-3-------0-0-------3-3-------3-3--------|
Gb|-2-2-------1-1-------0-0-------2-2--------|
Db|-0-0-------2-2-------0-0-------0-0--------|
Ab|-0-0-------2-2-------x-x-------0-0--------|
Eb|-----------0-0-------3-3------------------|
|                                           |
|(gtr 2) (no ring) ( same time with gtr 1)  | 
eb|------------------------------------------|
Bb|-3-3-------5-5-------8-8-------3-3--------|
Gb|-2-2-------4-4-------7-7-------2-2--------|
Db|-0-0-------2-2-------5-5-------0-0--------|
Ab|-0-0-------2-2-------5-5-------0-0--------|
Db|-0-0-------2-2-------5-5-------0-0--------|

Verse cont'd..("All they do is piss and moan...")
(gtr.1) (no ring)
eb|-x2-2-------0-0-------3-3-------2-2--------|
Bb|-x3-3-------0-0-------3-3-------3-3--------|
Gb|-x2-2-------1-1-------0-0-------2-2--------|
Db|-x0-0-------2-2-------0-0-------0-0--------|
Ab|-x0-0-------2-2-------x-x-------0-0--------|
Eb|------------0-0-------3-3------------------|
|                                           |
|(gtr 2) (no ring) ( same time with gtr 1)  | 
eb|-------------------------------------------|
Bb|-x3-3-------5-5-------8-8-------3-3--------|
Gb|-x2-2-------4-4-------7-7-------2-2--------|
Db|-x0-0-------2-2-------5-5-------0-0--------|
Ab|-x0-0-------2-2-------5-5-------0-0--------|
Db|-x0-0-------2-2-------5-5-------0-0--------|

Prechorus ("I'd like to see them spend a week...")
(gtr. 1)
eb|--------------------------------------------------------|
Bb|-3---3--3-----------------------------------------------|
Gb|-4---4--4--4--4-4-4---4-4-4---4--4----------------------|
Db|-4---4--4--4--4-4-4---4-4-5---5--5--5--5--5-5-5---5-5---|
Ab|-2---2--2--2--2-2-2---2-2-5---5--5--5--5--5-5-5---5-5---|
Eb|--------------------------3---3--3--3--3--3-3-3---3-3---|
|                    			  |
|(gtr. 3)				  |
eb|--------------------------------------------------------|
Bb|-3----------3--------x-x---------------3------------x-x-|
Gb|-4-4---4---------4---x-x-4-4-----------4------------x-x-|
Db|-4-4-----4----------4x-x-5-5----5-------------5-----x-x-|
Ab|-2-2-----------------x-x-5-5-------5----------------x-x-|
Eb|---------------------x-x-3-3---------------3------3-x-x-|

cont'd...("....I dont think they would survive...")
(gtr.1)
eb|---------------------------------------------------------|
Bb|---------------------------------------------------------|
Gb|-7---7--7--7--7--7-7-7---7-6-6---6--6--6--6--6-6-6--6-6--|
Db|-7---7--7--7--7--7-7-7---7-7-7---7--7--7--7--7-7-7--7-7--|
Ab|-5---5--5--5--5--5-5-5---5-7-7---7--7--7--7--7-7-7--7-7--|
Eb|-5---5--5--5--5--5-5-5---5-5-5---5--5--5--5--5-5-5--5-5--|
|              			   |
|(gtr.3)			   |
eb|---------------------------------------------------------|
Bb|-----------------------x-x----------------5-----------x-x|
Gb|-7-7--------7----------x-x----------------6-----------x-x|
Db|-7-7---7-------7---7--5x-x-7-7----7------------7-----7x-x|
Ab|-5-5-----5-----5-------x-x-7-7-------7------------7--7x-x|
Eb|-5-5-----5-----5-------x-x-5-5--------------------5--5x-x|

Prechorus cont'd.. ("I think its been a day or two..")
(gtr. 1)
eb|--------------------------------------------------------|
Bb|-3---3--3-----------------------------------------------|
Gb|-4---4--4--4--4-4-4---4-4-4---4--4----------------------|
Db|-4---4--4--4--4-4-4---4-4-5---5--5--5--5--5-5-5---5-5---|
Ab|-2---2--2--2--2-2-2---2-2-5---5--5--5--5--5-5-5---5-5---|
Eb|--------------------------3---3--3--3--3--3-3-3---3-3---|
|                    			  |
|(gtr. 3)				  |
eb|--------------------------------------------------------|
Bb|-3----------3--------x-x---------------3------------x-x-|
Gb|-4-4---4---------4---x-x-4-4-----------4------------x-x-|
Db|-4-4-----4----------4x-x-5-5----5-------------5-----x-x-|
Ab|-2-2-----------------x-x-5-5-------5----------------x-x-|
Eb|---------------------x-x-3-3---------------3------3-x-x-|

cont'd...("....I think they'd stumble...")
(gtr.1)
eb|---------------------------------------------------------|
Bb|---------------------------------------------------------|
Gb|-7---7--7--7--7--7-7-7---7-6-6---6--6--6--6--6-6-6--6-6--|
Db|-7---7--7--7--7--7-7-7---7-7-7---7--7--7--7--7-7-7--7-7--|
Ab|-5---5--5--5--5--5-5-5---5-7-7---7--7--7--7--7-7-7--7-7--|
Eb|-5---5--5--5--5--5-5-5---5-5-5---5--5--5--5--5-5-5--5-5--|
|              			   |
|(gtr.3)			   |
eb|---------------------------------------------------------|
Bb|-----------------------x-x----------------5-----------x-x|
Gb|-7-7--------7----------x-x----------------6-----------x-x|
Db|-7-7---7-------7---7--5x-x-7-7----7------------7-----7x-x|
Ab|-5-5-----5-----5-------x-x-7-7-------7------------7--7x-x|
Eb|-5-5-----5-----5-------x-x-5-5--------------------5--5x-x|

cont'd ("....they would fall...")
(gtr. 1)
eb|-------------------------------|
Bb|-------------------------------|
Gb|-4---4--4--4--4--4-4-4---4-4---|
Db|-5---5--5--5--5--5-5-5---5-5---|
Ab|-5---5--5--5--5--5-5-5---5-5---|
Eb|-3---3--3--3--3--3-3-3---3-3---|
|		|
|(gtr.3)	|
eb|-------------------------------|
Bb|-------------------------------|
Gb|-4-4----------4----------------|
Db|-5-5---5----------------5------|
Ab|-5-5------5--------------------|
Eb|-3-3--------------3-3-------3--|

Chorus ("Lifestyles of the Rich and the Famous...")
(gtrs. 1 and 3)
eb|-2--2--2--2--2--2--2--2-2-2-0--0--0--0--0--0--0--0-0-0--|
Bb|-3--3--3--3--3--3--3--3-3-3-0--0--0--0--0--0--0--0-0-0--|
Gb|-2--2--2--2--2--2--2--2-2-2-1--1--1--1--1--1--1--1-1-1--|
Db|-0--0--0--0--0--0--0--0-0-0-2--2--2--2--2--2--2--2-2-2--|
Ab|-0--0--0--0--0--0--0--0-0-0-2--2--2--2--2--2--2--2-2-2--|
Eb|----------------------------0--0--0--0--0--0--0--0-0-0--|
|				          |
|(gtr.2) 				  |
eb|--------------------------------------------------------|
Bb|-3--3--3--3--3--3--3--3-3-3-5--5--5--5--5--5--5--5-5-5--|
Gb|-2--2--2--2--2--2--2--2-2-2-4--4--4--4--4--4--4--4-4-4--|
Db|-0--0--0--0--0--0--0--0-0-0-2--2--2--2--2--2--2--2-2-2--|
Ab|-0--0--0--0--0--0--0--0-0-0-2--2--2--2--2--2--2--2-2-2--|
Db|-0--0--0--0--0--0--0--0-0-0-2--2--2--2--2--2--2--2-2-2--|

cont'd("..theyre always complaining...")
(gtrs.1 and 3)
eb|-3--3--3--3--3--3--3--3-3-3-2--2--2--2--2--2--2--2-2-2--|
Bb|-3--3--3--3--3--3--3--3-3-3-3--3--3--3--3--3--3--3-3-3--|
Gb|-0--0--0--0--0--0--0--0-0-0-2--2--2--2--2--2--2--2-2-2--|
Db|-0--0--0--0--0--0--0--0-0-0-0--0--0--0--0--0--0--0-0-0--|
Ab|-x--x--x--x--x--x--x--x-x-x-0--0--0--0--0--0--0--0-0-0--|
Eb|-3--3--3--3--3--3--3--3-3-3-----------------------------|
|				          |
|(gtr.2)				  |  
eb|--------------------------------------------------------|
Bb|-8--8--8--8--8--8--8--8-8-8-3--3--3--3--3--3--3--3-3-3--|
Gb|-7--7--7--7--7--7--7--7-7-7-2--2--2--2--2--2--2--2-2-2--|
Db|-5--5--5--5--5--5--5--5-5-5-0--0--0--0--0--0--0--0-0-0--|
Ab|-5--5--5--5--5--5--5--5-5-5-0--0--0--0--0--0--0--0-0-0--|
Db|-5--5--5--5--5--5--5--5-5-5-0--0--0--0--0--0--0--0-0-0--|

Chorus cont'd ("...if money is such a problem...")
(gtrs. 1 and 3)
eb|-2--2--2--2--2--2--2--2-2-2-0--0--0--0--0--0--0--0-0-0--|
Bb|-3--3--3--3--3--3--3--3-3-3-0--0--0--0--0--0--0--0-0-0--|
Gb|-2--2--2--2--2--2--2--2-2-2-1--1--1--1--1--1--1--1-1-1--|
Db|-0--0--0--0--0--0--0--0-0-0-2--2--2--2--2--2--2--2-2-2--|
Ab|-0--0--0--0--0--0--0--0-0-0-2--2--2--2--2--2--2--2-2-2--|
Eb|----------------------------0--0--0--0--0--0--0--0-0-0--|
|				          |
|(gtr.2) 				  |
eb|--------------------------------------------------------|
Bb|-3--3--3--3--3--3--3--3-3-3-5--5--5--5--5--5--5--5-5-5--|
Gb|-2--2--2--2--2--2--2--2-2-2-4--4--4--4--4--4--4--4-4-4--|
Db|-0--0--0--0--0--0--0--0-0-0-2--2--2--2--2--2--2--2-2-2--|
Ab|-0--0--0--0--0--0--0--0-0-0-2--2--2--2--2--2--2--2-2-2--|
Db|-0--0--0--0--0--0--0--0-0-0-2--2--2--2--2--2--2--2-2-2--|

cont'd("..well they got mansions...")
(gtrs.1 and 3)
eb|-3--3--3--3--3--3--3--3-3-3-2--2--2--2--2--2--2--2-2-2--|
Bb|-3--3--3--3--3--3--3--3-3-3-3--3--3--3--3--3--3--3-3-3--|
Gb|-0--0--0--0--0--0--0--0-0-0-2--2--2--2--2--2--2--2-2-2--|
Db|-0--0--0--0--0--0--0--0-0-0-0--0--0--0--0--0--0--0-0-0--|
Ab|-x--x--x--x--x--x--x--x-x-x-0--0--0--0--0--0--0--0-0-0--|
Eb|-3--3--3--3--3--3--3--3-3-3-----------------------------|
|				          |
|(gtr.2)				  |  
eb|--------------------------------------------------------|
Bb|-8--8--8--8--8--8--8--8-8-8-3--3--3--3--3--3--3--3-3-3--|
Gb|-7--7--7--7--7--7--7--7-7-7-2--2--2--2--2--2--2--2-2-2--|
Db|-5--5--5--5--5--5--5--5-5-5-0--0--0--0--0--0--0--0-0-0--|
Ab|-5--5--5--5--5--5--5--5-5-5-0--0--0--0--0--0--0--0-0-0--|
Db|-5--5--5--5--5--5--5--5-5-5-0--0--0--0--0--0--0--0-0-0--|

Verse 2("and did you know if you were famous...")  
(gtrs.1 and 3) (no ring)
eb|-2-2-------0-0-------3-3-------2-2--------|
Bb|-3-3-------0-0-------3-3-------3-3--------|
Gb|-2-2-------1-1-------0-0-------2-2--------|
Db|-0-0-------2-2-------0-0-------0-0--------|
Ab|-0-0-------2-2-------x-x-------0-0--------|
Eb|-----------0-0-------3-3------------------|
|                                           |
|(gtr 2) (no ring) ( same time with gtr 1)  | 
eb|------------------------------------------|
Bb|-3-3-------5-5-------8-8-------3-3--------|
Gb|-2-2-------4-4-------7-7-------2-2--------|
Db|-0-0-------2-2-------5-5-------0-0--------|
Ab|-0-0-------2-2-------5-5-------0-0--------|
Db|-0-0-------2-2-------5-5-------0-0--------|

Verse cont'd..("And did you know if you were caught....")
(gtr.1) (no ring)
eb|-x2-2-------0-0-------3-3-------2-2--------|
Bb|-x3-3-------0-0-------3-3-------3-3--------|
Gb|-x2-2-------1-1-------0-0-------2-2--------|
Db|-x0-0-------2-2-------0-0-------0-0--------|
Ab|-x0-0-------2-2-------x-x-------0-0--------|
Eb|------------0-0-------3-3------------------|
|                                           |
|(gtr 2) (no ring) ( same time with gtr 1)  | 
eb|-------------------------------------------|
Bb|-x3-3-------5-5-------8-8-------3-3--------|
Gb|-x2-2-------4-4-------7-7-------2-2--------|
Db|-x0-0-------2-2-------5-5-------0-0--------|
Ab|-x0-0-------2-2-------5-5-------0-0--------|
Db|-x0-0-------2-2-------5-5-------0-0--------|
|			    |
|(gtr.3)( with some effects..I think its tremolo and delay..)
eb|------------------------------------------------|
Bb|------------------------------------------------|
Gb|----14----14----14----14----13----13----13----13|
Db|-12----12----12----12----12----12----12----12---|
Ab|------------------------------------------------|
Eb|------------------------------------------------|
(gtr.3 cont'd)					  
eb|------------------------------------------------|
Bb|-------------------------------15----------15---|
Gb|----12----12----12----12----14-------14---------|
Db|-12----12----12----12----12-------12----12----12|
Ab|------------------------------------------------|
Eb|------------------------------------------------|
[ Tab from: http://www.guitartabs.cc/tabs/g/good_charlotte/lifestyles_of_the_rich_and_famous_tab_ver_9.html ]
Prechorus 2 (2x)
(gtr.1)
eb|--------------------------------------------------------|
Bb|--------------------------------------------------------|
Gb|--------------------------------------------------------|
Db|--------------------------------------------------------|
Ab|-2---2--2--2----2--2---2--0-----------------------------|
Eb|-----------------------------3---3--3--3--3--3---3---3--|
|                    			  |
|(gtr. 3)				  |
eb|--------------------------------------------------------|
Bb|-3----------3--------x-x---------------3------------x-x-|
Gb|-4-4---4---------4---x-x-4-4-----------4------------x-x-|
Db|-4-4-----4----------4x-x-5-5----5-------------5-----x-x-|
Ab|-2-2-----------------x-x-5-5-------5----------------x-x-|
Eb|---------------------x-x-3-3---------------3------3-x-x-|

cont'd
(gtr.1)
eb|---------------------------------------------------------|
Bb|---------------------------------------------------------|
Gb|---------------------------------------------------------|
Db|---------------------------------------------------------|
Ab|-5----5--5--5----5--5---5--5---0---0---4--0--5--4--2--0--|
Eb|---------------------------------------------------------|
|              			           |
|(gtr.3)				   |
eb|---------------------------------------------------------|
Bb|-----------------------x-x----------------5-----------x-x|
Gb|-7-7--------7----------x-x----------------6-----------x-x|
Db|-7-7---7-------7---7--5x-x-7-7----7------------7-----7x-x|
Ab|-5-5-----5-----5-------x-x-7-7-------7------------7--7x-x|
Eb|-5-5-----5-----5-------x-x-5-5--------------------5--5x-x|

cont'd(after 2nd time)("...they would fall...")
(gtr.1)
eb|-------------------------------|
Bb|-------------------------------|
Gb|-------------------------------|
Db|-------------------------------|
Ab|-------------------------------|
Eb|-3----3--3--3----3--3---3--3---|
|		        |
|(gtr.3)		|
eb|-------------------------------|
Bb|-------------------------------|
Gb|-4-4----------4----------------|
Db|-5-5---5----------------5------|
Ab|-5-5------5--------------------|
Eb|-3-3--------------3-3-------3--|

cont'd
(gtr.1)
eb|--------------------------------|
Bb|--------------------------------|
Gb|--------------------------------|
Db|--------------------------------|
Ab|--------------------------------|
Eb|-3-3---3-3---3-3---3-3--3-3-3-3-|

Chorus ("Lifestyles of the Rich and the Famous...")
(gtrs. 1 and 3)
eb|-2--2--2--2--2--2--2--2-2-2-0--0--0--0--0--0--0--0-0-0--|
Bb|-3--3--3--3--3--3--3--3-3-3-0--0--0--0--0--0--0--0-0-0--|
Gb|-2--2--2--2--2--2--2--2-2-2-1--1--1--1--1--1--1--1-1-1--|
Db|-0--0--0--0--0--0--0--0-0-0-2--2--2--2--2--2--2--2-2-2--|
Ab|-0--0--0--0--0--0--0--0-0-0-2--2--2--2--2--2--2--2-2-2--|
Eb|----------------------------0--0--0--0--0--0--0--0-0-0--|
|				          |
|(gtr.2) 				  |
eb|--------------------------------------------------------|
Bb|-3--3--3--3--3--3--3--3-3-3-5--5--5--5--5--5--5--5-5-5--|
Gb|-2--2--2--2--2--2--2--2-2-2-4--4--4--4--4--4--4--4-4-4--|
Db|-0--0--0--0--0--0--0--0-0-0-2--2--2--2--2--2--2--2-2-2--|
Ab|-0--0--0--0--0--0--0--0-0-0-2--2--2--2--2--2--2--2-2-2--|
Db|-0--0--0--0--0--0--0--0-0-0-2--2--2--2--2--2--2--2-2-2--|

cont'd("..theyre always complaining...")
(gtrs.1 and 3)
eb|-3--3--3--3--3--3--3--3-3-3-2--2--2--2--2--2--2--2-2-2--|
Bb|-3--3--3--3--3--3--3--3-3-3-3--3--3--3--3--3--3--3-3-3--|
Gb|-0--0--0--0--0--0--0--0-0-0-2--2--2--2--2--2--2--2-2-2--|
Db|-0--0--0--0--0--0--0--0-0-0-0--0--0--0--0--0--0--0-0-0--|
Ab|-x--x--x--x--x--x--x--x-x-x-0--0--0--0--0--0--0--0-0-0--|
Eb|-3--3--3--3--3--3--3--3-3-3-----------------------------|
|				          |
|(gtr.2)				  |  
eb|--------------------------------------------------------|
Bb|-8--8--8--8--8--8--8--8-8-8-3--3--3--3--3--3--3--3-3-3--|
Gb|-7--7--7--7--7--7--7--7-7-7-2--2--2--2--2--2--2--2-2-2--|
Db|-5--5--5--5--5--5--5--5-5-5-0--0--0--0--0--0--0--0-0-0--|
Ab|-5--5--5--5--5--5--5--5-5-5-0--0--0--0--0--0--0--0-0-0--|
Db|-5--5--5--5--5--5--5--5-5-5-0--0--0--0--0--0--0--0-0-0--|

Chorus cont'd ("...if money is such a problem...")
(gtrs. 1 and 3)
eb|-2--2--2--2--2--2--2--2-2-2-0--0--0--0--0--0--0--0-0-0--|
Bb|-3--3--3--3--3--3--3--3-3-3-0--0--0--0--0--0--0--0-0-0--|
Gb|-2--2--2--2--2--2--2--2-2-2-1--1--1--1--1--1--1--1-1-1--|
Db|-0--0--0--0--0--0--0--0-0-0-2--2--2--2--2--2--2--2-2-2--|
Ab|-0--0--0--0--0--0--0--0-0-0-2--2--2--2--2--2--2--2-2-2--|
Eb|----------------------------0--0--0--0--0--0--0--0-0-0--|
|				          |
|(gtr.2) 				  |
eb|--------------------------------------------------------|
Bb|-3--3--3--3--3--3--3--3-3-3-5--5--5--5--5--5--5--5-5-5--|
Gb|-2--2--2--2--2--2--2--2-2-2-4--4--4--4--4--4--4--4-4-4--|
Db|-0--0--0--0--0--0--0--0-0-0-2--2--2--2--2--2--2--2-2-2--|
Ab|-0--0--0--0--0--0--0--0-0-0-2--2--2--2--2--2--2--2-2-2--|
Db|-0--0--0--0--0--0--0--0-0-0-2--2--2--2--2--2--2--2-2-2--|

cont'd("..well they got mansions...")
(gtrs.1 and 3)
eb|-3--3--3--3--3--3--3--3-3-3-2--2--2--2--2--2--2--2-2-2--|
Bb|-3--3--3--3--3--3--3--3-3-3-3--3--3--3--3--3--3--3-3-3--|
Gb|-0--0--0--0--0--0--0--0-0-0-2--2--2--2--2--2--2--2-2-2--|
Db|-0--0--0--0--0--0--0--0-0-0-0--0--0--0--0--0--0--0-0-0--|
Ab|-x--x--x--x--x--x--x--x-x-x-0--0--0--0--0--0--0--0-0-0--|
Eb|-3--3--3--3--3--3--3--3-3-3-----------------------------|
|				          |
|(gtr.2)				  |  
eb|--------------------------------------------------------|
Bb|-8--8--8--8--8--8--8--8-8-8-3--3--3--3--3--3--3--3-3-3--|
Gb|-7--7--7--7--7--7--7--7-7-7-2--2--2--2--2--2--2--2-2-2--|
Db|-5--5--5--5--5--5--5--5-5-5-0--0--0--0--0--0--0--0-0-0--|
Ab|-5--5--5--5--5--5--5--5-5-5-0--0--0--0--0--0--0--0-0-0--|
Db|-5--5--5--5--5--5--5--5-5-5-0--0--0--0--0--0--0--0-0-0--|

Bridge(sirens..then little part comes in..)
(gtr.1)
eb|---------------------------------------|
Bb|---------------------------------------|
Gb|---------------------------------------|
Db|---------------------------------------|
Ab|-5-5--5-5--5-5--5-5-0-3--5-5--5-5--5-5-|
Eb|---------------------------------------

cont'd
eb|---------------------------|
Bb|---------------------------|
Gb|---------------------------|
Db|---------------------------|
Ab|-5-5--5-5--5-5--5-5-0-3-5--|
Eb|---------------------------|

Slower Chorus  (with a strumming pattern)
(gtr.s 1 and 3)
eb|-2---2---2--2---2--2---2---2-2-0---0---0--0---0--0---0---0-0-|
Bb|-3---3---3--3---3--3---3---3-3-0---0---0--0---0--0---0---0-0-|
Gb|-2---2---2--2---2--2---2---2-2-1---1---1--1---1--1---1---1-1-|
Db|-0---0---0--0---0--0---0---0-0-2---2---2--2---2--2---2---2-2-|
Ab|-0---0---0--0---0--0---0---0-0-2---2---2--2---2--2---2---2-2-|
Eb|-------------------------------0---0---0--0---0--0---0---0-0-|
|      				                    |
|(gtr.2)			                    |
eb|-------------------------------------------------------------|
Bb|-3---3---3--3---3--3---3---3-3-5---5---5--5---5--5---5---5-5-|
Gb|-2---2---2--2---2--2---2---2-2-4---4---4--4---4--4---4---4-4-|
Db|-0---0---0--0---0--0---0---0-0-2---2---2--2---2--2---2---2-2-|
Ab|-0---0---0--0---0--0---0---0-0-2---2---2--2---2--2---2---2-2-|
Db|-0---0---0--0---0--0---0---0-0-2---2---2--2---2--2---2---2-2-|

cont'd
(gtrs. 1 and 3)
eb|-3---3---3--3---3--3---3---3-3-2---2---2--2---2--2---2---2-2-|
Bb|-3---3---3--3---3--3---3---3-3-3---3---3--3---3--3---3---3-3-|
Gb|-0---0---0--0---0--0---0---0-0-2---2---2--2---2--2---2---2-2-|
Db|-0---0---0--0---0--0---0---0-0-0---0---0--0---0--0---0---0-0-|
Ab|-x---x---x--x---x--x---x---x-x-0---0---0--0---0--0---0---0-0-|
Eb|-3---3---3--3---3--3---3---3-3-------------------------------|
|       	 	  	                    |
|(gtr.2)				            |
eb|-------------------------------------------------------------|
Bb|-8---8---8--8---8--8---8---8-8-3---3---3--3---3--3---3---3-3-|
Gb|-7---7---7--7---7--7---7---7-7-2---2---2--2---2--2---2---2-2-|
Db|-5---5---5--5---5--5---5---5-5-0---0---0--0---0--0---0---0-0-|
Ab|-5---5---5--5---5--5---5---5-5-0---0---0--0---0--0---0---0-0-|
Db|-5---5---5--5---5--5---5---5-5-0---0---0--0---0--0---0---0-0-|

Slower Chorus cont'd  (with a strumming pattern)
(gtr.s 1 and 3)
eb|-2---2---2--2---2--2---2---2-2-0---0---0--0---0--0---0---0-0-|
Bb|-3---3---3--3---3--3---3---3-3-0---0---0--0---0--0---0---0-0-|
Gb|-2---2---2--2---2--2---2---2-2-1---1---1--1---1--1---1---1-1-|
Db|-0---0---0--0---0--0---0---0-0-2---2---2--2---2--2---2---2-2-|
Ab|-0---0---0--0---0--0---0---0-0-2---2---2--2---2--2---2---2-2-|
Eb|-------------------------------0---0---0--0---0--0---0---0-0-|
|      				               |
|(gtr.2)				       |
eb|-------------------------------------------------------------|
Bb|-3---3---3--3---3--3---3---3-3-5---5---5--5---5--5---5---5-5-|
Gb|-2---2---2--2---2--2---2---2-2-4---4---4--4---4--4---4---4-4-|
Db|-0---0---0--0---0--0---0---0-0-2---2---2--2---2--2---2---2-2-|
Ab|-0---0---0--0---0--0---0---0-0-2---2---2--2---2--2---2---2-2-|
Db|-0---0---0--0---0--0---0---0-0-2---2---2--2---2--2---2---2-2-|

cont'd
(gtrs. 1 and 3)
eb|-3---3---3--3---3--3---3---3-3-2---2---2--2---2--2---2---2-2-|
Bb|-3---3---3--3---3--3---3---3-3-3---3---3--3---3--3---3---3-3-|
Gb|-0---0---0--0---0--0---0---0-0-2---2---2--2---2--2---2---2-2-|
Db|-0---0---0--0---0--0---0---0-0-0---0---0--0---0--0---0---0-0-|
Ab|-x---x---x--x---x--x---x---x-x-0---0---0--0---0--0---0---0-0-|
Eb|-3---3---3--3---3--3---3---3-3-------------------------------|
|       	 	 	                    |
|(gtr.2)				            |
eb|-------------------------------------------------------------|
Bb|-8---8---8--8---8--8---8---8-8-3--3--3--3--3--3--3--3---3-3--|
Gb|-7---7---7--7---7--7---7---7-7-2--2--2--2--2--2--2--2---2-2--|
Db|-5---5---5--5---5--5---5---5-5-0--0--0--0--0--0--0--0---0-0--|
Ab|-5---5---5--5---5--5---5---5-5-0--0--0--0--0--0--0--0---0-0--|
Db|-5---5---5--5---5--5---5---5-5-0--0--0--0--0--0--0--0---0-0--|

Chorus ("Lifestyles of the Rich and the Famous...")
(gtrs. 1 and 3)
eb|-2--2--2--2--2--2--2--2-2-2-0--0--0--0--0--0--0--0-0-0--|
Bb|-3--3--3--3--3--3--3--3-3-3-0--0--0--0--0--0--0--0-0-0--|
Gb|-2--2--2--2--2--2--2--2-2-2-1--1--1--1--1--1--1--1-1-1--|
Db|-0--0--0--0--0--0--0--0-0-0-2--2--2--2--2--2--2--2-2-2--|
Ab|-0--0--0--0--0--0--0--0-0-0-2--2--2--2--2--2--2--2-2-2--|
Eb|----------------------------0--0--0--0--0--0--0--0-0-0--|
|				          |
|(gtr.2) 				  |
eb|--------------------------------------------------------|
Bb|-3--3--3--3--3--3--3--3-3-3-5--5--5--5--5--5--5--5-5-5--|
Gb|-2--2--2--2--2--2--2--2-2-2-4--4--4--4--4--4--4--4-4-4--|
Db|-0--0--0--0--0--0--0--0-0-0-2--2--2--2--2--2--2--2-2-2--|
Ab|-0--0--0--0--0--0--0--0-0-0-2--2--2--2--2--2--2--2-2-2--|
Db|-0--0--0--0--0--0--0--0-0-0-2--2--2--2--2--2--2--2-2-2--|

cont'd("..we'll take clothes, cash,...")
(gtrs.1 and 3)
eb|-3--3--3--3--3--3--3--3-3-3-2--2--2--2--2--2--2--2-2-2--|
Bb|-3--3--3--3--3--3--3--3-3-3-3--3--3--3--3--3--3--3-3-3--|
Gb|-0--0--0--0--0--0--0--0-0-0-2--2--2--2--2--2--2--2-2-2--|
Db|-0--0--0--0--0--0--0--0-0-0-0--0--0--0--0--0--0--0-0-0--|
Ab|-x--x--x--x--x--x--x--x-x-x-0--0--0--0--0--0--0--0-0-0--|
Eb|-3--3--3--3--3--3--3--3-3-3-----------------------------|
|				          |
|(gtr.2)				  |  
eb|--------------------------------------------------------|
Bb|-8--8--8--8--8--8--8--8-8-8-3--3--3--3--3--3--3--3-3-3--|
Gb|-7--7--7--7--7--7--7--7-7-7-2--2--2--2--2--2--2--2-2-2--|
Db|-5--5--5--5--5--5--5--5-5-5-0--0--0--0--0--0--0--0-0-0--|
Ab|-5--5--5--5--5--5--5--5-5-5-0--0--0--0--0--0--0--0-0-0--|
Db|-5--5--5--5--5--5--5--5-5-5-0--0--0--0--0--0--0--0-0-0--|

Chorus cont'd ("lifestyles of the rich and famous..")(2x)
(gtrs.1 and 3)
eb|-3--3--3--3--3--3--3--3-3-3-2--2--2--2--2--2--2--2-2-2--|
Bb|-3--3--3--3--3--3--3--3-3-3-3--3--3--3--3--3--3--3-3-3--|
Gb|-0--0--0--0--0--0--0--0-0-0-2--2--2--2--2--2--2--2-2-2--|
Db|-0--0--0--0--0--0--0--0-0-0-0--0--0--0--0--0--0--0-0-0--|
Ab|-x--x--x--x--x--x--x--x-x-x-0--0--0--0--0--0--0--0-0-0--|
Eb|-3--3--3--3--3--3--3--3-3-3-----------------------------|
|				          |
|(gtr.2)				  |  
eb|--------------------------------------------------------|
Bb|-8--8--8--8--8--8--8--8-8-8-3--3--3--3--3--3--3--3-3-3--|
Gb|-7--7--7--7--7--7--7--7-7-7-2--2--2--2--2--2--2--2-2-2--|
Db|-5--5--5--5--5--5--5--5-5-5-0--0--0--0--0--0--0--0-0-0--|
Ab|-5--5--5--5--5--5--5--5-5-5-0--0--0--0--0--0--0--0-0-0--|
Db|-5--5--5--5--5--5--5--5-5-5-0--0--0--0--0--0--0--0-0-0--|

cont'd("lifestyles of the rich and famous")
(gtrs.1 and 3)              P.M.................... ...
eb|-3--3--3--3--3--3--3--3-3-3-2--2--2--2--2--2--2--2--2--2--2--2-|
Bb|-3--3--3--3--3--3--3--3-3-3-3--3--3--3--3--3--3--3--3--3--3--3-|
Gb|-0--0--0--0--0--0--0--0-0-0-2--2--2--2--2--2--2--2--2--2--2--2-|
Db|-0--0--0--0--0--0--0--0-0-0-0--0--0--0--0--0--0--0--0--0--0--0-|
Ab|-x--x--x--x--x--x--x--x-x-x-0--0--0--0--0--0--0--0--0--0--0--0-|
Eb|-3--3--3--3--3--3--3--3-3-3------------------------------------|
|				                             |
|(gtr.2)		    P.M........................      |  
eb|---------------------------------------------------------------|
Bb|-8--8--8--8--8--8--8--8-8-8-3--3--3--3--3--3--3--3--3--3--3--3-|
Gb|-7--7--7--7--7--7--7--7-7-7-2--2--2--2--2--2--2--2--2--2--2--2-|
Db|-5--5--5--5--5--5--5--5-5-5-0--0--0--0--0--0--0--0--0--0--0--0-|
Ab|-5--5--5--5--5--5--5--5-5-5-0--0--0--0--0--0--0--0--0--0--0--0-|
Db|-5--5--5--5--5--5--5--5-5-5-0--0--0--0--0--0--0--0--0--0--0--0-|

email me at xtremepoopmaster@aol.com for anything....sorry for any mistakes
===============================================================================
Comments