Good Charlotte - Lifestyles Of The Rich And Famous Chords & Tabs

 

Lifestyles Of The Rich And Famous Chords & Tabs

Good Charlotte Chords & Tabs

Version: 7 Type: Tab 0 ratings
1 star 2 stars 3 stars 4 stars 5 stars
comments

Lifestyles Of The Rich And Famous Tab

   
Good Charlotte – Lifestyles Of The Rich And Famous
Tabbed by Linda

I’m not sure if the lyrics are correct, I just listened to the song and
tried to figure it out. On the “as long as you got the cash to pay for ???????”
I just wrote down what it sounded like they said: cocrin or something like that.

Tuning: e a d g b e 

e|-------------------------------------------------------------------------
b|-------------------------------------------------------------------------
g|-6-6-------------8-8-------------11-11-------------6-6-------------6-6---
d|-6-6-------------8-8-------------11-11-------------6-6-------------6-6---
a|-4-4-------------6-6--------------9--9-------------4-4-------------4-4---
e|-------------------------------------------------------------------------
    Oh,we see it on T.V.   or read it in those    celebrities that         All 
                                     Magazines              want sympathy
|------------------------------------------------------------|
|------------------------------------------------------------|
|----------8-8-------------11-11-------------6-6-------------|
|----------8-8-------------11-11-------------6-6-------------|
|----------6-6--------------9—-9-------------4-4-------------|
|------------------------------------------------------------|
they do is piss    inside the Rolin,talking about how ha     beee.
     and moan                gstone          rd life can

|--------------------------------------------------------------------------
|--------------------------------------------------------------------------
|-----------------------------------6---6---6—-6—-6------------------------
|-8---8---8--8—-8--6---6---6—-6—-6—-6---6---6—-6—-6—-6---6---6--6--6—-8---8
|-8---8---8--8—-8—-6---6---6—-6—-6—-4---4---4--4—-4—-6---6---6--6--6—-8---8
|-6---6---6--6--6—-4---4---4—-4—-4-------------------4---4---4--4--4—-6---6
 I’d like to see them week, living life out street,I don’t think they       They co
              Spend a                on the              would surviveeeee.

|--------------------------------------------------------------------------
|--------------------------------------------------------------------------
|-----------------------------6---6---6--6--6------------------------------
|---8--8--8--6---6---6--6--6--6---6---6--6--6--6---6---6--6--6--4-4-4-4-4-4
|---8--8--8--6---6---6--6--6--4---4---4--4--4--6---6---6--6--6--4-4-4-4-4-4
|---6--6--6--4---4---4--4--4-------------------4---4---4--4--4--2-2-2-2-2-2
uld spendadayor2,walking in someone shoes.I think they’d  faaaaaaaalllll They would fall faa
                              else’s        stumble and they’d  

|-------|
|-------|
|-------|
|-4-4--4|
|-4-4--4|
|-2-2--2|
aaaalllll

|--------------------------------------------------------------------------
|--------------------------------------------------------------------------
|-6-6-6-6-6-6-6-6-8-8-8-8-8-8-8-8-11-11-11-11-11-11-11-11-6-6-6-6-6-6-6-6--
|-6-6-6-6-6-6-6-6-8-8-8-8-8-8-8-8-11-11-11-11-11-11-11-11-6-6-6-6-6-6-6-6--
|-4-4-4-4-4-4-4-4-6-6-6-6-6-6-6-6--9--9--9--9--9--9--9--9-4-4-4-4-4-4-4-4--
|--------------------------------------------------------------------------
lifestyles of the ric famous,their always laining, always coooommmplaaaaaaaiiiiiinnnning
             h and the               comp
|-------------------------------------------------------------------------|
|-------------------------------------------------------------------------|
|-6-6-6-6-6-6-6-6-8-8-8-8-8-8-8-8-11-11-11-11-11-11-11-11-6-6-6-6-6-6-6-6-|
|-6-6-6-6-6-6-6-6-8-8-8-8-8-8-8-8-11-11-11-11-11-11-11-11-6-6-6-6-6-6-6-6-|
|-4-4-4-4-4-4-4-4-6-6-6-6-6-6-6-6--9--9--9--9--9--9--9--9-4-4-4-4-4-4-4-4-|
|-------------------------------------------------------------------------|
if money is such a problem, well I’ll thi meeeennntioooon,  think we should rooooooob them
                                  nk I’ll

|--------------------------------------------------------------------------
|--------------------------------------------------------------------------
|-6-6-------------8-8-------------11-11-------------6-6-------------6-6----
|-6-6-------------8-8-------------11-11-------------6-6-------------6-6----
|-4-4-------------6-6--------------9--9-------------4-4-------------4-4----
|--------------------------------------------------------------------------
Did you know when you  no such thing as 25  as long as you have  cocrin. or did you know if
are famous you could               to life  the cash to pay for 
kill your wife and there’s 

|----------------------------------------------------------|
|----------------------------------------------------------|
|---------8-8-------------11-11-------------6-6------------|
|---------8-8-------------11-11-------------6-6------------|
|---------6-6--------------9--9-------------4-4------------|
|----------------------------------------------------------|
you were ca  McDonalds wouldn’t   you could only just   C.
ught when y  even wanna take yo   run for mayor of D.
ou were smo  u back.
king crack.
[ Tab from: http://www.guitartabs.cc/tabs/g/good_charlotte/lifestyles_of_the_rich_and_famous_tab_ver_7.html ]
|-------|------------------------------------------------------------------
|-P--S--|------------------------------------------------------------------
|-I--L--|------------------------------------6---6---6--6--6---------------
|-C--I--|-8---8---8--8--8--4---4---4--4--4---6---6---6--6--6--6-6----------
|-K--D--|-8---8---8--8--8--4---4---4--4--4---4---4---4--4--4--6-6-3---4-3--
|----E--|-6---6---6--6--6--2---2---2--2--2--------------------4-4---4-----6
          I’d like to see them|week, living life    street,I don’t think|  surviiiiiiiiiive
                       spend a         out on the             they would
       
|--------------------------------------------------------------------------
|--------------------------------------------------------------------------
|--------------------------------------6---6---6--6--6---------------------
|----8---8---8--8--8--4---4---4--4--4--6---6---6--6--6--6-6-------------4-4
|----8---8---8--8--8--4---4---4--4--4--4---4---4--4--4--6-6-3---4-3-----4-4
|-4--6---6---6--6--6--2---2---2--2--2-------------------4-4---4-----6-4-2-2
       They could spend a|2 walking in someone| shoes I think they’d|faaaaaaaaaall they would
                   day or               else’s    stumble and they’d 

|------------------------------|
|------------------------------|
|------------------------------|
|-4-4-4-4-4-4---44-44-44-44-44-|
|-4-4-4-4-4-4---44-44-44-44-44-|
|-2-2-2-2-2-2---22-22-22-22-22-|
 faaaaaaaaall.

|--------------------------------------------------------------------------
|--------------------------------------------------------------------------
|-6-6-6-6-6-6-6-6-8-8-8-8-8-8-8-8-11-11-11-11-11-11-11-11-6-6-6-6-6-6-6-6--
|-6-6-6-6-6-6-6-6-8-8-8-8-8-8-8-8-11-11-11-11-11-11-11-11-6-6-6-6-6-6-6-6--
|-4-4-4-4-4-4-4-4-6-6-6-6-6-6-6-6--9--9--9--9--9--9--9--9-4-4-4-4-4-4-4-4--
|--------------------------------------------------------------------------
lifestyles of the ric famous,their always laining, always coooommmplaaaaaaaiiiiiinnnning
             h and the               comp


|-------------------------------------------------------------------------|
|-------------------------------------------------------------------------|
|-6-6-6-6-6-6-6-6-8-8-8-8-8-8-8-8-11-11-11-11-11-11-11-11-6-6-6-6-6-6-6-6-|
|-6-6-6-6-6-6-6-6-8-8-8-8-8-8-8-8-11-11-11-11-11-11-11-11-6-6-6-6-6-6-6-6-|
|-4-4-4-4-4-4-4-4-6-6-6-6-6-6-6-6--9--9--9--9--9--9--9--9-4-4-4-4-4-4-4-4-|
|-------------------------------------------------------------------------|
if money is such a problem, well I’ll thi meeeennntioooon,  think we sh rooooooob them
                                  nk I’ll                          ould


|-----------------------------------------------------------------|--------
|-----------------------------------------------------------------|--------
|-----------------------------------------------------------------|--------
|-----------------------------------------------------------------|-44--44-
|-----------------------------------------------------------------|--------
|-----------------------------------------------------------------|--------
 roooooood them,  rooooooob them

|----------------------------------------------------------------|
|----------------------------------------------------------------|
|----------------------------------------------------------------|
|-44--44----2--44--44--44----44--44--44--44---2------------------|
|--------4----------------------------------4--------------------|
|----------------------------------------------------------------|
                                They would faaaaaaaaaaal      faaaaaaaaaaaalll

|--------------------------------------------------------------------------
|--------------------------------------------------------------------------
|-6---6---6--6--6--8---8---8--8--8--11---11---11--11--11---6---6---6--6--6-
|-6---6---6--6--6--8---8---8--8--8--11---11---11--11--11---6---6---6--6--6-
|-4---4---4--4--4--6---6---6--6--6---9----9----9---9---9---4---4---4--4--4-
|--------------------------------------------------------------------------
lifestyles of the ric famous,their always laining, always coooommmplaaaaaaaiiiiiinnnning
             h and the               comp


|--------------------------------------------------------------------------
|--------------------------------------------------------------------------
|-6---6---6--6--6--8---8---8--8--8--11---11---11--11--11---6---6---6--6--6-
|-6---6---6--6--6--8---8---8--8--8--11---11---11--11--11---6---6---6--6--6-
|-4---4---4--4--4--6---6---6--6--6---9----9----9---9---9---4---4---4--4--4-
|--------------------------------------------------------------------------
 if money is such a problem,they got so m problems I think I could sooolllve theeeemmmmm
                                        any

|-------------------------------------------------------------------------|
|-------------------------------------------------------------------------|
|-6-6-6-6-6-6-6-6-8-8-8-8-8-8-8-8-11-11-11-11-11-11-11-11-6-6-6-6-6-6-6-6-|
|-6-6-6-6-6-6-6-6-8-8-8-8-8-8-8-8-11-11-11-11-11-11-11-11-6-6-6-6-6-6-6-6-|
|-4-4-4-4-4-4-4-4-6-6-6-6-6-6-6-6--9--9--9--9--9--9--9--9-4-4-4-4-4-4-4-4-|
|-------------------------------------------------------------------------|
lifestyles of the ric famous,   we’ll take clothes cash cars and home so laaaaaiiiiniiiing 
             h and the                                    just stop comp

|-----------------------------------------------------------------|
|-----------------------------------------------------------------|
|-11-11-11-11-11-11-11-11-6-6-6-6-6-6-6-6-11-11-11-11-11-11-11-11-|
|-11-11-11-11-11-11-11-11-6-6-6-6-6-6-6-6-11-11-11-11-11-11-11-11-|
|--9--9--9--9--9--9--9--9-4-4-4-4-4-4-4-4--9--9--9--9--9--9--9--9-|
|-----------------------------------------------------------------|
lifestyyyyyyles of the             rich and famous     lifestyyyyyyles of the

|-------------------------------------------------------------------|
|-------------------------------------------------------------------|
|-6-6-6-6-6-6-6-6-11-11-11-11-11-11-11-11-6-6-6-6-6-6-6-6-6-6-6-6-6-|
|-6-6-6-6-6-6-6-6-11-11-11-11-11-11-11-11-6-6-6-6-6-6-6-6-6-6-6-6-6-|
|-4-4-4-4-4-4-4-4--9--9--9--9--9--9--9--9-4-4-4-4-4-4-4-4-4-4-4-4-4-|
|-------------------------------------------------------------------|
rich and famous     lifestyyyyyyyyyles of the     riiich and faamoouussss
Comments