Good Charlotte - Lifestyles Of The Rich And Famous Chords & Tabs

 

Lifestyles Of The Rich And Famous Chords & Tabs

Good Charlotte Chords & Tabs

Version: 1 Type: Chords 0 ratings
1 star 2 stars 3 stars 4 stars 5 stars
comments

Lifestyles Of The Rich And Famous Chords

   
song- lifestyles of the rich and famous
band- good charlotte
tabbed by brad

standard tuning 

intro
   C#       D#       F#       C#
E|--------------------------------------
B|--------------------------------------
G|--------------------------------------
D|-6-6------8-8------4-4------3-3-------
A|-4-4------6-6------4-4------4-4-------
E|--------------------------------------

verse same as intro

pre chorus
   A#m      F#      C#      G#
E|--------------------------------------
B|--------------------------------------
G|--------------------------------------
D|------------------6-6-6-6-------------
A|--8-8-8-8-4-4-4-4-4-4-4-4-6-6-6-6-----
E|--6-6-6-6-2-2-2-2---------4-4-4-4-----

[ Tab from: http://www.guitartabs.cc/tabs/g/good_charlotte/lifestyles_of_the_rich_and_famous_crd.html ]
   A#m      F#      C#      G#      F#
E|--------------------------------------------------
B|--------------------------------------------------
G|--------------------------------------------------
D|------------------6-6-6-6-------------------------
A|--8-8-8-8-4-4-4-4-4-4-4-4-6-6-6-6-4-4-4-4-4-4-4-4-
E|--6-6-6-6-2-2-2-2---------4-4-4-4-2-2-2-2-2-2-2-2-

chorus

   C#       D#       F#       C#
E|--------------------------------------
B|--------------------------------------
G|--------------------------------------
D|-6-6-6-6--8-8-8-8--4-4-4-4--3-3-3-3---
A|-4-4-4-4--6-6-6-6--4-4-4-4--4-4-4-4---
E|--------------------------------------

play verse

play pre chorus

play chorus


the next bit doesnt really have a name its just C# played 16 times

play chorus

end where he says lifestyles of the rich and famous over and over again is 
F# x4  C# x4

comments questions email me at yobbos_rule@hotmail.com
Comments