Good Charlotte - Let Me Go Chords & Tabs

 

Let Me Go Chords & Tabs

Good Charlotte Chords & Tabs

Version: 1 Type: Tab 0 ratings
1 star 2 stars 3 stars 4 stars 5 stars
comments

Let Me Go Tab

Let Me Go - Good Charlotte 
By:Andrew Mcshan(Guitarguyx182@aol.com)
Chorus x 4
e|--------------------------------------------------------|
B|--------------------------------------------------------|
G|--5-5---------2-2---------------------------------------|
D|--5-5--3-3-3--2-2--5-5-5-5------------------------------|
A|--3-3--3-3-3--0-0--5-5-5-5------------------------------|
E|-------1-1-1-------3-3-3-3------------------------------|
Pre Verse x 1
e|--------------------------------------------------------|
B|--------------------------------------------------------|
G|--8-8-8-8-8-8-8-8-8-8--8-8-8-8-8-8-8-8-8-8-8-8--5-------|
D|--------------------------------------------------------|
A|--------------------------------------------------------|
E|--------------------------------------------------------|
Verse x 4
e|--------------------------------------------------------|
B|--------------------------------------------------------|
G|--5-5--------**-2-2-------------------------------------|
D|--5-5--3-3-3-**-2-2--5-5-5-5----------------------------|
A|--3-3--3-3-3-**-0-0--5-5-5-5----------------------------|
E|-------1-1-1---------3-3-3-3----------------------------|
Chorus x 3
Post Chorus x 1
e|--------------------------------------------------------|
B|--------------------------------------------------------|
G|--5-5-5-5-5-5-5-5--9-9-9-9-9-9-9-9-10-10-10-10-/11-11---|
D|--5-5-5-5-5-5-5-5--9-9-9-9-9-9-9-9-10-10-10-10-/11-11---|
A|--3-3-3-3-3-3-3-3--7-7-7-7-7-7-7-7--8--8--8--8-/-9--9---|
E|--------------------------------------------------------|
Down in the streets outside of Washington, D.C., 
I wasted all my time and you were there with me, 
Back then it meant so much to have you by my side, 
I always had your back, and you always had mine 
Sayin... 

Let me go, Have some fun, 
Well my decision sucks, yeah 
But I'm so young 

We'd hang out late and fight just trying to have fun 
We were such punk ass kids but we knew everyone 
And who could see through such blazed up bloodshot eyes, 
There was a plan for us one day we'd realize,
[ Tab from: http://www.guitartabs.cc/tabs/g/good_charlotte/let_me_go_tab.html ]
Comments