Good Charlotte - Innocent Chords & Tabs

 

Innocent Chords & Tabs

Good Charlotte Chords & Tabs

Version: 1 Type: Tab 0 ratings
1 star 2 stars 3 stars 4 stars 5 stars
comments

Innocent Tab

I'm just telling you the power chords.  You can play around with the rythem yourself.

Verse 3x
E-----------------------------------------------------------
B-----------------------------------------------------------
G---7-------------------------------7-----------------------
D---7-------7-------9-------5-------7-------7-------5-------
A---5-------7-------9-------5-------5-------7-------5-------
E-----------5-------7-------3---------------5-------3-------

Chours
E-----------------------------------------------------------
B-----------------------------------------------------------
G---7-------------------------------------------------------
D---7-------7-------9-------4-------5-------7-------9-------
A---5-------7-------9-------4-------5-------7-------9-------
E-----------5-------7-------2-------3-------5-------7-------

E-----------------------------------------------------------
B-----------------------------------------------------------
G---7-------------------------------------------------------
D---7-------7-------9-------4-------5-------7-------9-------
A---5-------7-------9-------4-------5-------7-------9-------
E-----------5-------7-------2-------3-------5-------7-------
[ Tab from: http://www.guitartabs.cc/tabs/g/good_charlotte/innocent_tab.html ]
E-----------------------------------------------------------
B-----------------------------------------------------------
G-------------------7---------------------------------------
D---5-------7-------7---------------------------------------
A---5-------7-------5---------------------------------------
E---3-------5-----------------------------------------------

Verse

Chours

Solo
E-----------------------------------------------------------
B-----------------------------------------------------------
G-------------------------------------------------4-6-7-9---
D-------------------------------------------------4-6-7-9---
A---5-5-5-7-5-4-4-0-2-2-2-0-2---4-5-5-5-0-4-4-4-0-2-4-5-7---
E-----------------------------------------------------------

E-----------------------------------------------------------
B-----------------------------------------------------------
G-----------------------------------------------------------
D---0-0-4-0-5-0-4-0---7-7-4-0-5-0-4-0-----------------------
A-----------------------------------------------------------
E-----------------------------------------------------------

E-----------------------------------------------------------
B-----------------------------------------------------------
G-----------------------------------------------------------
D---0-0-4-0-5-0-7-0-9-0-7-0-5-0-4-0---0-0-4-0-5-0-4-0-------
A-----------------------------------------------------------
E-----------------------------------------------------------

E-----------------------------------------------------------
B---------------------7-7-----------------------------------
G---------------------7-7-----------------------------------
D---7-7-4-0-5-0-4-0---7-------------------------------------
A-----------------------------------------------------------
E-----------------------------------------------------------
Comments