Good Charlotte - I Want Candy Chords & Tabs

 

I Want Candy Chords & Tabs

Good Charlotte Chords & Tabs

Version: 1 Type: Tab 0 ratings
1 star 2 stars 3 stars 4 stars 5 stars
comments

I Want Candy Tab

Good Charlotte - I Want Candy
By:Andrew Mcshan (Guitarguyx182@aol.com)
[ Tab from: http://www.guitartabs.cc/tabs/g/good_charlotte/i_want_candy_tab.html ]
Intro:
Guitar 1
e|--------------------------------------------------------------------------|
B|--------------------------------------------------------------------------|
G|--6-6--4--6---------------------------------------------------------------|
D|--6-6--4--6---------------------------------------------------------------|
A|--4-4--2--4---------------------------------------------------------------|
E|--------------------------------------------------------------------------|
Guitar 2
e|--------------------------------------------------------------------------|
B|------------------------------------------------2-------2--4---2--42------|
G|-----------------9--7--6-9-7--6--9--7---6----4-4--------------------------|
D|-----------6-7------------------------------------------------------------|
A|--7-7--9------------------------------------------------------------------|
E|--------------------------------------------------------------------------|

e|--------------------------------------------------------------------------|
B|--9----11---9---7---11----9--7---11---9------7------2-4---2---------------|
G|-----------------------------------------------------------------4--------|
D|--------------------------------------------------------------------------|
A|--------------------------------------------------------------------------|
E|--------------------------------------------------------------------------|
Verse/Chorus/Bridge 
e|--------------------------------------------------------------------------|
B|--------------------------------------------------------------------------|
G|--6-6--6--4--6------------------------------------------------------------|
D|--6-6--6--4--6------------------------------------------------------------|
A|--4-4--4--2--4------------------------------------------------------------|
E|--------------------------------------------------------------------------|
Comments