Good Charlotte - I Just Wanna Live Chords & Tabs

 

I Just Wanna Live Chords & Tabs

Good Charlotte Chords & Tabs

Version: 1 Type: Tab 10 ratings
1 star 2 stars 3 stars 4 stars 5 stars
comments

I Just Wanna Live Tab

i just wanna live - good charloitte


There's guitar only in the chorus(4)and in the bridge which is after the chorus 2 
right before chorus 3


Chorus 1
-------------------------|
-------------------------|
-10-10---8-8---6-6---8-8-|
-10-10---8-8---6-6---8-8-| x3
-8--8----6-6---4-4---6-6-|
-------------------------|
           +
-----------------------------|
-----------------------------|
-10-10---8-8---6-6---8-8--10-|
-10-10---8-8---6-6---8-8--10-|
-8--8----6-6---4-4---6-6--8--|
-----------------------------|

Chorus 2
-------------------------|
-------------------------|
-10-10---8-8---6-6---8-8-|
-10-10---8-8---6-6---8-8-| x3
-8--8----6-6---4-4---6-6-|
-------------------------|
           +
-----------------|
-----------------|
-10-10---8-8---6-|
-10-10---8-8---6-|
-8--8----6-6---4-|
-----------------|
[ Tab from: http://www.guitartabs.cc/tabs/g/good_charlotte/i_just_wanna_live_tab.html ]
Bridge
-------------------------|
-------------------------|
-10-10---8-8---6-6---8-8-|
-10-10---8-8---6-6---8-8-|
-8--8----6-6---4-4---6-6-|
-------------------------|
           +
-----------------|
-----------------|
-10-10---8-8---6-|
-10-10---8-8---6-|
-8--8----6-6---4-|
-----------------|

Chorus 3
-------------------------|
-------------------------|
-10-10---8-8---6-6---8-8-|
-10-10---8-8---6-6---8-8-| x2
-8--8----6-6---4-4---6-6-|
-------------------------|
           +
-----------------|
-----------------|
-10-10---8-8---6-|
-10-10---8-8---6-|
-8--8----6-6---4-|
-----------------|

Chorus 4 (Same as Chorus 2)
-------------------------|
-------------------------|
-10-10---8-8---6-6---8-8-|
-10-10---8-8---6-6---8-8-| x3
-8--8----6-6---4-4---6-6-|
-------------------------|
           +
-----------------|
-----------------|
-10-10---8-8---6-|
-10-10---8-8---6-|
-8--8----6-6---4-|
-----------------|


by arelia any comments treasuremousy@hotmail.com
Comments