Good Charlotte - I Dont Wanna Stop Chords & Tabs

 

I Dont Wanna Stop Chords & Tabs

Good Charlotte Chords & Tabs

Version: 3 Type: Tab 0 ratings
1 star 2 stars 3 stars 4 stars 5 stars
comments

I Dont Wanna Stop Tab

Donít Wanna Stop - Good Charlotte
By:Andrew Mcshan(Guitarguyx182@aol.com)
Chorus and Intro
e|-----------------------------------------------|
B|-----------------------------------------------|
G|-----------------------------------------------|
D|--5-5-555--9-9-999--10-10-101010-/12-----------|
A|--5-5-555--9-9-999--10-10-101010-/12-----------|
E|--3-3-333--7-7-777--8--8--8-8-8--/10-----------|

No Guitar in verse
                                                                             
Pre Chorus x 2
e|-----------------------------------------------|
B|-----------------------------------------------|
G|--5-5-55-/7-7-77----------4-4-44---------------|
D|--5-5-55-/7-7-77--5-5-55--4-4-44---------------|
A|--3-3-33-/5-5-55--5-5-55--2-2-22---------------|
E|------------------3-3-33-----------------------|

Outro
e|-----------------------------------------------|
B|-----------------------------------------------|
G|--5-5-55-/7-7-77----------4-4-44-44444444444---|
D|--5-5-55-/7-7-77--5-5-55--4-4-44-44444444444---|
A|--3-3-33-/5-5-55--5-5-55--2-2-22-22222222222---|
E|------------------3-3-33-----------------------|

GO!

yea.....yea

one two 
[ Tab from: http://www.guitartabs.cc/tabs/g/good_charlotte/i_dont_wanna_stop_tab_ver_3.html ]
all these games you play your messin with me head
(your messin with me head)
And i dont know why i stay i should leave instead
(should leave instead)
When i speak from my heart you laugh like its a game
(well this aint no game)
Yea we make great friends but it just isnt the same

And i know this is not the way it should be
and i know you treat him like me
But I dont
wanna stop
dont wanna stop
dont wanna stop
dont wanna stop
I dont wanna stop
Dont wanna stop
dont wanna stop
dont wanna stop

Now i dont need you to buy me pretty things
( you dont pay for me)
pay for my tattoos or by me diamond rings
(we dont want those things)
all i know is that im happy to see you smile
(wanna see you smile)
and it would make my day if you would just stay for awhile
(wont you stay with me?)

And i know this is not the way it should be
And i know you treat him like me
But i dont wanna stop
dont wanna stop
dont wanna stop
dont wanna stop
I dont wanna stop
dont wanna stop
dont wanna stop
dont wanna stop

This has gone on for way to long 
And im tired of moving on
this has gone on for way to long.
....this has gone on for way to long
and im tired of way to long.
this has gone on for way to long

And i know this is not the way it should be
and i know you treat him like me
but i dont
wanna stop
Comments