Good Charlotte - Hold On Chords & Tabs

 

Hold On Chords & Tabs

Good Charlotte Chords & Tabs

Version: 7 Type: Tab 0 ratings
1 star 2 stars 3 stars 4 stars 5 stars
comments

Hold On Tab

   
If anyone has any more tab request's by good charlotte put it in my post,
and ill print it up.

Good Charlotte 
Hold On, 

d'>

-------0----------------0----------2---2-0-3-2-0----|
---3-----3---3-----3------3---3------------------3--|
-2---2-----2---------0------0----2---2--------------|
-0---------------0---------------0------------------|
----------------------------------------------------|
----------------------------------------------------|


-2------3------5------3------2----3----5----5/7\5--|
-3------3------5------3------3----3----5-----------|
---------------------------------------------------|
---------------------------------------------------|
---------------------------------------------------|
---------------------------------------------------|

                           
----------33-3-----|--2-0-2-3-2-0-2---|-----------------|
-33-3-----33-3-----|--3-3-3-3-3-3-3---|-----------------|
-33-3--------------|--2-2-2-2-2-2-2---|-----------------|
-33-3--------------|------------------|5555555555555555-|
-------------------|------------------|5555555555555555-|
-------------------|------------------|5555555555555555-|

-------------------------------------------------
-------------------------------------------------
-------------------------------------------------
-------------------------------------------------
-00000000----44444444----99999999----55555555----
-00000000----77777777----99999999----55555555----

-------------------------------------------------|
-------------------------------------------------|
-------------------------------------------------|
-------------------------------------------------|
-00000000----44444444----9999---4-5--------------|
-00000000----77777777----9999---4-5--------------|

STOP!!!!!! Listen carefully......ah, a discovery, theres not high riff again


-------------------------------------------------|
-------------------------------------------------|
-------------------------------------------------|
-------------------------------------------------|
-------------------------------------------------|
-77777777--77777777--77777777-77777777-----------|


-11------12------14------12------11----12----14----14/16\14-|
-12------12------14------12------12----12----14-------------|
------------------------------------------------------------|
------------------------------------------------------------|
------------------------------------------------------------|
------------------------------------------------------------|
[ Tab from: http://www.guitartabs.cc/tabs/g/good_charlotte/hold_on_tab_ver_7.html ]

-------------------------------------------------|
-------------------------------------------------|
-------------------------------------------------|
-------------------------------------------------|
-00000000----44444444----99999999----55555555----|
-00000000----77777777----99999999----55555555----|

-------------------------------------------------|
-------------------------------------------------|
-------------------------------------------------|
-------------------------------------------------|
-00000000----44444444----9999---4-5--------------|
-00000000----77777777----9999---4-5--------------|

 .............
-------------------------------------------------|
-------------------------------------------------|
-------------------------------------------------|
-------------------------------------------------|
-00000000----44444444----99999999----55555555----|
-00000000----77777777----99999999----55555555----|

-------------------------------------------------|
-------------------------------------------------|
-------------------------------------------------|
-------------------------------------------------|
-00000000----44444444----9999---4-5--------------|
-00000000----77777777----9999---4-5--------------|

I JUST WANT TO GIVE A THANKS TO THE GUYS RUNING THIS SITE, ITS GREAT ITS THE BEST
SITE ON THE NET, I THINK I CAN THANK YOU ON BEHALF OF THE HUNDREDS OF THOUSANDS
OF PEOPLE USING THIS SITE. THANK YOU!!!
Comments