Good Charlotte - Hold On Chords & Tabs

 

Hold On Chords & Tabs

Good Charlotte Chords & Tabs

Version: 4 Type: Tab 0 ratings
1 star 2 stars 3 stars 4 stars 5 stars
comments

Hold On Tab

   
Hi, this is my first tab. So, try it ! Maybe you like it (I Hope) ! Thank you !


(Guitar 1) (intro & verse 1)
E------------0---------------------0-------------------2--0--3--2--0-----
B------3---------3-----3------3-------3------3----3-------------------3--
G---------2---------2------0----0---------0-----2---2--------------------
D---0--------------------------------------------------------------------
A------------------------------------------------------------------------
E------------------------------------------------------------------------

(Guitar 2) (intro & "you're feeling sad.......")
E----2----3----5----3----2----3----5----7----
B--------------------------------------------
G--------------------------------------------
D--------------------------------------------
A--------------------------------------------
E--------------------------------------------

A                    G               D
But we all bleed the same way as you do 
A               G 
We all have the same things to go thru

D    A         Bm                G
Hold on if you fell like letting go
D    A          Bm          F#  G
Hold on it gets better than you know

(Guitar 1) (verse 2)
E------------0---------------------0-------------------2--0--3--2--0-----
B------3---------3-----3------3-------3------3----3-------------------3--
G---------2---------2------0----0---------0-----2---2--------------------
D---0--------------------------------------------------------------------
A------------------------------------------------------------------------
E------------------------------------------------------------------------
[ Tab from: http://www.guitartabs.cc/tabs/g/good_charlotte/hold_on_tab_ver_4.html ]
(Guitar 2) ("And you're not sure what you......")
E----2----3----5----3----2----3----5----7----
B--------------------------------------------
G--------------------------------------------
D--------------------------------------------
A--------------------------------------------
E--------------------------------------------

A                    G               D
But we all bleed the same way as you do 
A               G 
We all have the same things to go thru

D    A         Bm                G
Hold on if you fell like letting go
D    A          Bm              G
Hold on it gets better than you know
D                         A
Don't stop looking you're one step closer
Bm                            G
Don't stop searching it's not over
D A Bm F# G
Hold on
D A Bm F# G

(Guitar 1 & 2) (2x)
E------------------------------------2---
B--2--2--2--2--3--2--2--2--4--3--2---4---
G------------------------------------4---
D------------------------------------2---
A------------------------------------2---
E------------------------------------2---

(Guitar 1 & 2) ("..what are you looking for...")
E---------------------------2--
B--2--2--3--2--3--4--3--2---4--
G---------------------------4--
D---------------------------2--
A---------------------------2--
E---------------------------2--

D    A         Bm                G
Hold on if you fell like letting go
D    A          Bm              G
Hold on it gets better than you know
D                         A
Don't stop looking you're one step closer
Bm                            G
Don't stop searching it's not over
D    A         Bm                G
Hold on if you fell like letting go
D    A          Bm              G
Hold on it gets better than you know
D A Bm F# G
Hold on
D A Bm F# G
Comments