Good Charlotte - Hold On Chords & Tabs

 

Hold On Chords & Tabs

Good Charlotte Chords & Tabs

Version: 1 Type: Tab 0 ratings
1 star 2 stars 3 stars 4 stars 5 stars
comments

Hold On Tab

-------------------------------------------------------------------------------
			     Hold On - Good Charlotte
-------------------------------------------------------------------------------

By:Ryan Green

Intro/Verses

e|---------------------------------------------------------------------------|
B|------4-----4-----4-7-6-4-6------------------------------------------------|
G|-----6-6---6-6---6-6-------------------------------------------------------|
D|----6---6-6---6-6----------------------------------------------------------|
A|---4-----4-----4-----------------------------------------------------------|
E|---------------------------------------------------------------------------|

PRECHORUS 
 "But we all bleed the same way as you do..."
e|---------------------------------------------------------------------------|
B|-------------------------------------------4-7-6-4-6-----------------------|
G|---------------------------------------6----6------------------------------|
D|--6---------------------4--------------6-----------------------------------|
A|--6---------------------4--------------4-----------------------------------|
E|--4---------------------2--------------------------------------------------|

   "And we all have the same things to go through..."
                                                    (palm mute)  
e|--------------------------------------------|------------------------------|
B|--------------------------------------------|------------------------------|
G|--------------------------------------------|------------------------------|
D|-----6------------------4-------------------|--4-4-4-4-4-4-4-4-4-4-4-------|
A|-----6------------------4-------------------|--4-4-4-4-4-4-4-4-4-4-4-------|
E|-----4------------------2-------------------|--2-2-2-2-2-2-2-2-2-2-2-------|

 CHORUS
     "Hold on...if you feel like letting go"
e|---------------------------------------------------------------------------|
B|---------------------------------------------------------------------------|
G|----6----------------------------------------------------------------------|
D|----6-----6-----------8----------------4-----------------------------------|
A|----4-----6-----------8----------------4-----------------------------------|
E|----------4-----------6----------------2-----------------------------------|

     "Hold on...it gets better than you know"
[ Tab from: http://www.guitartabs.cc/tabs/g/good_charlotte/hold_on_tab.html ]
e|---------------------------------------------------------------------------|
B|---------------------------------------------------------------------------|
G|----6----------------------------------------------------------------------|
D|----6-----6-----------8------------3---4-----------------------------------|
A|----4-----6-----------8------------3---4-----------------------------------|
E|----------4-----------6------------1---2-----------------------------------|

  -VERSES-

  -PRECHORUS-

  -CHORUS-


  Don't stop looking you're one step closer,Don't stop searching it's not over
                  						
e|---------------------------------------------------------------------------|
B|---------------------------------------------------------------------------|
G|----6----------------------------------------------------------------------|
D|----6-----------------6--------------------8--------------------4----------|
A|----4-----------------6--------------------8--------------------4----------|
E|----------------------4--------------------6--------------------2----------|

   Hold on...
e|---------------------------------------------------------------------------|
B|---------------------------------------------------------------------------|
G|----6----------------------------------------------------------------------|
D|----6-----6-----------8------------3--4---------8----3--4------------------|
A|----4-----6-----------8------------3--4---------8----3--4------------------|
E|----------4-----------6------------1--2---------6----1--2------------------|

BRIDGE
				 (not sure of picking)
e|-----4-------------4----------|----------------------|  --------------------|
B|-----4-------------4----------|------4---4--4--4-----|  ----4---4---4-------|
G|-----6-------------6----------|-----6---6--6--6------|  ---6---6---6--------|
D|-----6------3------6------3---|----6---6--6--6-----3-|x3--6---6---6----3--4-|
A|-----4------3------4------3---|--------------------3-|  ---------------3--4-|
E|------------1-------------1---|--------------------1-|  ---------------1--2-|

 CHORUS
e|---------------------------------------------------------------------------|
B|---------------------------------------------------------------------------|
G|----6----------------------------------------------------------------------|
D|----6-----6-----------8----------------4-----------------------------------|x6
A|----4-----6-----------8----------------4-----------------------------------|
E|----------4-----------6----------------2-----------------------------------|

   Hold on...
e|---------------------------------------------------------------------------|
B|---------------------------------------------------------------------------|
G|----6----------------------------------------------------------------------|
D|----6-----6-----------8------------3--4---------8----3--4------------------|
A|----4-----6-----------8------------3--4---------8----3--4------------------|
E|----------4-----------6------------1--2---------6----1--2------------------|

===============================================================================
Comments