Good Charlotte - Girls And Boys Chords & Tabs

 

Girls And Boys Chords & Tabs

Good Charlotte Chords & Tabs

Version: 3 Type: Tab 0 ratings
1 star 2 stars 3 stars 4 stars 5 stars
comments

Girls And Boys Tab

Song : Boys & Girls
Artist : Good Charlotte
Album : The Young & The Hopeless
Tabbed By : Patrick

Tuned Down 1/2 STEP!

S = Slide

e-----------------------0------------------------------------------
B-----------------------0------------------------------------------
G---6--S--8--------------------------------------------------------
D---7--S--9--------------------------------------------------------
A---7--S--9--------------------------------------------------------
E---5--S--7--------------------------------------------------------

Educated with money...

Verse Guitar 1

e-------------------------------------------------------------------
B-------------------------------------------------------------------
G---6-6--8-8--------------------------------------------------------
D---7-7--9-9---------X4---------------------------------------------
A---7-7--9-9--------------------------------------------------------
E---5-5--7-7--------------------------------------------------------


Intro / Verse Guitar 2
e--------------12-------0------------------------------------------
B--14--12--10-----------0------------------------------------------
G------------------------------------------------------------------
D------------------------------------------------------------------
A------------------------------------------------------------------
E------------------------------------------------------------------
                 
And not much to say in most conversations...

Prechorus Guitar 1
e-------------------------------------------------------------------
B-------------------------------------------------------------------
G-------------------------------------------------------------------
D------------------------------------------X4-----------------------
A----7-7-7-7-7-7-7-7----9-9-9-9-9-9-9-9---------7-7-7-7-7-7-7-7-7-7-
E----5-5-5-5-5-5-5-5----7-7-7-7-7-7-7-7---------5-5-5-5-5-5-5-5-5-5-


Girls dont like Boys girls like...
Chorus I Guitar 1 & 2
e-----------------------------------------------------------------
B-----------------------------------------------------------------
G-----------------------------------------------------------------
D--9-9-9-9-9-9-9-9-9---9-9-9-9-9-9-9-9-9--------------------------
A--7-7-7-7-7-7-7-7-7---6-6-6-6-6-6-6-6-6----7-7-7-7-7-7-7-7-7-----
E-------------------------------------------5-5-5-5-5-5-5-5-5-----

Verse 

Prechorus 

Chorus

And these girls like these boys...
[ Tab from: http://www.guitartabs.cc/tabs/g/good_charlotte/girls_and_boys_tab_ver_3.html ]
Chorus II Guitar 1 & 2
e-------------------------------------------------------------
B-------------------------------------------------------------
G-------------------------------------------------------------
D--9-9-9-9-9-9-9-9-9---9-9-9-9-9-9-9-9-9---------------------- X4
A--7-7-7-7-7-7-7-7-7---6-6-6-6-6-6-6-6-6----7-7-7-7-7-7-7-7-7-
E-------------------------------------------5-5-5-5-5-5-5-5-5-

Solo Guitar 1
e-------------------------------------------------
B---7-s-9--5-5-5-----7-s-9-s-7--5-5-5-------------
G-------------------------------------------------
D------------------------------------------------- X4
A-------------------------------------------------
E-------------------------------------------------

Solo Guitar 2
e------------------------------------------------------------------
B--12--12--12--12--12--12--12--12--12--12--12--12--12--12----------
G------------------------------------------------------------------
D------------------------------------------------------------------
A------------------------------------------------------------------
E------------------------------------------------------------------
CONTINUED GUITAR 2
e------------------------------------------------------------------
B--12-12-12-12-13-13-13-13-14-14-14-14-15-15-15-15-----------------
G------------------------------------------------------------------
D------------------------------------------------------------------
A------------------------------------------------------------------
E------------------------------------------------------------------

Girls Dont like Boys Girls like Cars and Money.....
e-------------------------------------------------------------------------
B-------------------------------------------------------------------------
G-------------------------------------------------------------------------
D------------------------------------------------X2-----------------------
A---3-3-3-3-3-3-3-3------7-7-7-7-7-7-7-7----------------------------------
E---1-1-1-1-1-1-1-1------5-5-5-5-5-5-5-5----------------------------------


e------------------------------------------------------------------
B------------------------------------------------------------------
G------------------------------------------------------------------
D--9-9-9-9-9-9-9-9-9---9-9-9-9-9-9-9-9-9---------------------------
A--7-7-7-7-7-7-7-7-7---6-6-6-6-6-6-6-6-6----7-7-7-7-7-7-7-7-7------
E-------------------------------------------5-5-5-5-5-5-5-5-5------

All of these boys and all of these girls........

Intro / Verse
Comments