Good Charlotte - Ghost Of You Chords & Tabs

 

Ghost Of You Chords & Tabs

Good Charlotte Chords & Tabs

Version: 1 Type: Tab 0 ratings
1 star 2 stars 3 stars 4 stars 5 stars
comments

Ghost Of You Tab

   
-----------------------------------------------------------------------------
			     ghost of you - Good Charlotte
-----------------------------------------------------------------------------

Tabbed by:Agathe

 I think this is pretty close. The strumming amounts are basic, not exact.
       Listen to the song, it's fantastic Gc !!!!! This can be played awesome on acoustic
       (just use all open chord equivalents) Yah, I know we're all supposed to know
       the names, but I put them anyway. I'm a beginner!!!

Tuning: Eb
   INTRO (eachy about 8 times each)

eb|--------------------------------------------------------------------------|
Bb|--------------------------------------------------------------------------|
Gb|-------------1---------------------1--------------------------------------|
Db|---7----5----2----3-----7----5-----2-- 3----------------------------------|
Ab|---7----5----2----3-----7----5-----2-- 3----------------------------------|
Eb|---5----3---------1-----5----3-------- 1----------------------------------|
     (A)  (G)  (E)  (F)   (A)  (F)   (E) (F)

   Verse (each strummed once upwards)
eb|------- 0-------------0---------------------------------------------------|
Bb|---1----1-------------1---------------------------------------------------|
Gb|---2----0------1------2---------------------------------------------------|
Db|---2----2------2------3------------repeat all 4 again---------------------|
Ab|--------3------2------0---------------------------------------------------|
Eb|--------0-------------0---------------------------------------------------|
    (Am)  (C)    (E)    (F7?)
[ Tab from: http://www.guitartabs.cc/tabs/g/good_charlotte/ghost_of_you_tab.html ]
   Pre chorus ( each strummed once, unless otherwise stated)
eb|--------------------------------------------------------------------------|
Bb|--------------------------------------------------------------------------|
Gb|------1------------ 1----------1--------------1---------------------------|
Db|--5---2---3----5--- 2--3---5---2-----3----5---2------3-3-3-3-3-3-3-3------|
Ab|--5---2---3----5--- 2--3---5---2-----3----5---2------3-3-3-3-3-3-3-3------|
Eb|--3-------1----3-------1---3---------1----3----------1-1-1-1-1-1-1-1------|
    (G) (E) (F)

   Chorus (if you listen to the song, you can get strums)
eb|--------------------------------------------------------------------------|
Bb|--------------------------------------------------------------------------|
Gb|---5----1--------------5----1---------------------------------------------|
Db|---5----2----3---3-----5----2-----3---3-----------------------------------|
Ab|---3----2----3---3-----3----2-----3---3-----------------------------------|
Eb|-------------1---1----------------1---1-----------------------------------|
     (C)  (E)  (F) (F)

repeat intro ( just first 1/2)
then verse
then pre chorus
then chorus
then

  Bridge (play as you like)
eb|--------------------------------------------------------------------------|
Bb|--------------------------------------------------------------------------|
Gb|---7---5--------7----7----5-----------------------------------------------|
Db|---7---5---5----7----7----5---5---3---------------------------------------|
Ab|---5---3---5----5----5----3---5---3---------------------------------------|
Eb|-----------3------------------3---1---------------------------------------|

then repeat chorus 3 times, no guitar for last 1/2 of verse)

Ta dah!!! I hope you likes. This is my first tab by ear, so apologies if you think it sucks.
I love this song, so I hope you have fun playing it!!!
Comments