Good Charlotte - Festival Song Chords & Tabs

 

Festival Song Chords & Tabs

Good Charlotte Chords & Tabs

Version: 2 Type: Tab 0 ratings
1 star 2 stars 3 stars 4 stars 5 stars
comments

Festival Song Tab

   
Good Charlotte
"Festival Song"
Tabbed by George Kemper (onehitwonderland@hotmail.com)

Vist the Official Good Charlotte Site: http://www.goodcharlotte.com
Official Good Charlotte Yahoo Group: 
http://groups.yahoo.com/group/GoodCharlotteArmy/join

Note: Two guitars transcribed for one.  There are a couple remarkably small 
fills
in this song that I did not include, but if you would like them email me at 
the
address above.  If you haven't invested in distortion or phaser pedals as of 
yet,
this song should be motivation to :)

CHORDS USED
A [577xxx]
B [x244xx]
C [x355xx]
D [x577xx]
G [355xxx]

|----------------------------------------------------------------------Repeat-3x-|
|-8-8-8-7-7-7--------------------------------------------------------------------|
|-7-7-7-7-7-7--------------------------------------------------------------------|
|-7-7-7-7-7-7-7-7-7-5------------------------------------------------------------|
|-------------7-7-7-5------------------------------------------------------------|
|-------------5-5-5-3------------------------------------------------------------|

D                    A       G
I don't care about a thing today

D                 A     G
I used to but I'm fed up

D                  A         G
And I can hear the words you say

D                     A      G
I wish that you would shut up

D                A   G
I've got responsibility

D             A   G
That is my liability

D             A  G
A menace to society

D                         A
At least that's what they say to me

D
But tonight tonight

     A
It's on tonight

G                 A
I don't want your boring life

D                     A
And I don't want your 9 to 5

   B                        C       A
Or anyone to tell me how to live my life
[ Tab from: http://www.guitartabs.cc/tabs/g/good_charlotte/festival_song_tab_ver_2.html ]
|----------------------------------------------------------------------Repeat-1x-|
|-8-8-8-7-7-7--------------------------------------------------------------------|
|-7-7-7-7-7-7--------------------------------------------------------------------|
|-7-7-7-7-7-7-7-7-7-5------------------------------------------------------------|
|-------------7-7-7-5------------------------------------------------------------|
|-------------5-5-5-3------------------------------------------------------------|

People always tell me not to waste my time
To get a real job and get back in line
You can say I'll never be a millionaire
Tell me this guitar won't get me anywhere

D                A   G
I've got responsibility

D             A   G
That is my liability

D                 A    G
I'm questioning authority

D                      A
They say there's not a chance for me

D
But tonight tonight

     A
It's on tonight

G                 A
I don't want your boring life

D                     A
And I don't want your 9 to 5

   B                        C       A
Or anyone to tell me how to live my life

D    A        G  A
Your future's no future

D    A        G  A
Your future's no future

D    A        G  A
Your future's no future

D    A    G  A
I control my future

D
Tonight tonight

     A
It's on tonight

G                 A
I don't want your boring life

D                     A
And I don't want your 9 to 5

   B                        C       A
Or anyone to tell me how to live my life

D
Tonight tonight
     A
It's on tonight

G                 A
I don't want your boring life

D                     A
And I don't want your 9 to 5

   B                        C       A
Or anyone to tell me how to live my life

D   A
I'm leaving

G   A
I'm leaving

D   A
I'm leaving

B   C  A
I'm leaving tonight

C	A
C	A
C	G

Comments