Good Charlotte - Festival Song Chords & Tabs

 

Festival Song Chords & Tabs

Good Charlotte Chords & Tabs

Version: 1 Type: Tab 0 ratings
1 star 2 stars 3 stars 4 stars 5 stars
comments

Festival Song Tab

Festival Song
by Good Charlotte
track: #5 on self-titled album
tabbed by: mat mcmanus (munky0911@aol.com)


intro:
e|--3-3-2-2-2-2---------|
B|--3-3-3-3-3-3---------|
G|--2-2-2-2-2-2-2-2-----|
D|--------------2-2-5-5-|
A|--------------0-0-5-5-|
E|------------------3-3-|

verse:
e|--------------|
B|--------------|
G|-7------------|
D|-7--7--5------|
A|-5--7--5------|
E|----5--3------|
[ Tab from: http://www.guitartabs.cc/tabs/g/good_charlotte/festival_song_tab.html ]
chorus:
e|----------|             |---------|
B|----------|             |---------|
G|-7--------|play 2x then:|----6----|
D|-7-7-5-7--|             |-9--6--7-|
A|-5-7-5-7--|             |-9--4--7-|
E|---5-3-5--|             |-7-----5-|

bridge: (listen to cd for strumming pattern)
e|-----------------|
B|-----------------|
G|-4--2-----2------|
D|-4--2--5--2------|
A|-2--0--5--0------|
E|-------3---------|

outro:
e|--------------------|-------------|
B|--------------------|-------------|
G|--5-5-5-5-----------|-5-5-5-5-----|
D|--5-5-5-5-7-7-7-7---|-5-5-5-5-5---|
A|--3-3-3-3-7-7-7-7---|-3-3-3-3-5---|
E|----------5-5-5-5---|---------3---|


email me at Munky0911@aol.com if you have any questions, corrections,
or comments
Comments